ISO-10303-21;
HEADER;
FILE_DESCRIPTION(('STEP AP214'),'1');
FILE_NAME('cctmp_4D6F398C-9DA6-4C40-9B7F-09BCC24FD42C_2023_10_16_23_12_43_0424..stp','2023-10-16T21:12:43',('SIEMENS A&D'),('CADClick - www.CADClick.com'),'Spatial InterOp 3D postprocessed',' ','unknown authorization');
FILE_SCHEMA(('AUTOMOTIVE_DESIGN'));
ENDSEC;
DATA;
#1=MECHANICAL_DESIGN_GEOMETRIC_PRESENTATION_REPRESENTATION(' ',(#10,#11,#12,#13,#14,#15,#16,#17,#18,#19,#20,#21,#22,#23,#24,#25,#26,#27),#6);
#2=PRODUCT_DEFINITION_CONTEXT('',#28,'design');
#3=APPLICATION_PROTOCOL_DEFINITION('INTERNATIONAL STANDARD','automotive_design',1994,#28);
#4=PRODUCT_CATEGORY_RELATIONSHIP('NONE','NONE',#29,#30);
#5=SHAPE_DEFINITION_REPRESENTATION(#31,#32);
#6= (GEOMETRIC_REPRESENTATION_CONTEXT(3)GLOBAL_UNCERTAINTY_ASSIGNED_CONTEXT((#35))GLOBAL_UNIT_ASSIGNED_CONTEXT((#37,#38,#39))REPRESENTATION_CONTEXT('NONE','WORKSPACE'));
#10=STYLED_ITEM('',(#41),#42);
#11=STYLED_ITEM('',(#43),#44);
#12=STYLED_ITEM('',(#45),#46);
#13=STYLED_ITEM('',(#47),#48);
#14=STYLED_ITEM('',(#49),#50);
#15=STYLED_ITEM('',(#51),#52);
#16=STYLED_ITEM('',(#53),#54);
#17=STYLED_ITEM('',(#55),#56);
#18=STYLED_ITEM('',(#57),#58);
#19=STYLED_ITEM('',(#59),#60);
#20=STYLED_ITEM('',(#61),#62);
#21=STYLED_ITEM('',(#63),#64);
#22=STYLED_ITEM('',(#65),#66);
#23=STYLED_ITEM('',(#67),#68);
#24=STYLED_ITEM('',(#69),#70);
#25=STYLED_ITEM('',(#71),#72);
#26=STYLED_ITEM('',(#73),#74);
#27=STYLED_ITEM('',(#75),#76);
#28=APPLICATION_CONTEXT(' ');
#29=PRODUCT_CATEGORY('part','NONE');
#30=PRODUCT_RELATED_PRODUCT_CATEGORY('detail',' ',(#77));
#31=PRODUCT_DEFINITION_SHAPE('NONE','NONE',#78);
#32=ADVANCED_BREP_SHAPE_REPRESENTATION('2023_10_16_23_12_43_0409',(#76,#79),#6);
#35=UNCERTAINTY_MEASURE_WITH_UNIT(LENGTH_MEASURE(1.0E-006),#37,'','');
#37= (CONVERSION_BASED_UNIT('MILLIMETRE',#82)LENGTH_UNIT()NAMED_UNIT(#85));
#38= (NAMED_UNIT(#87)PLANE_ANGLE_UNIT()SI_UNIT($,.RADIAN.));
#39= (NAMED_UNIT(#87)SOLID_ANGLE_UNIT()SI_UNIT($,.STERADIAN.));
#41=PRESENTATION_STYLE_ASSIGNMENT((#93));
#42=ADVANCED_FACE('NONE',(#94),#95,.T.);
#43=PRESENTATION_STYLE_ASSIGNMENT((#96));
#44=ADVANCED_FACE('NONE',(#97),#98,.T.);
#45=PRESENTATION_STYLE_ASSIGNMENT((#99));
#46=ADVANCED_FACE('NONE',(#100),#101,.T.);
#47=PRESENTATION_STYLE_ASSIGNMENT((#102));
#48=ADVANCED_FACE('NONE',(#103),#104,.F.);
#49=PRESENTATION_STYLE_ASSIGNMENT((#105));
#50=ADVANCED_FACE('NONE',(#106),#107,.T.);
#51=PRESENTATION_STYLE_ASSIGNMENT((#108));
#52=ADVANCED_FACE('NONE',(#109),#110,.F.);
#53=PRESENTATION_STYLE_ASSIGNMENT((#111));
#54=ADVANCED_FACE('NONE',(#112),#113,.F.);
#55=PRESENTATION_STYLE_ASSIGNMENT((#114));
#56=ADVANCED_FACE('NONE',(#115),#116,.T.);
#57=PRESENTATION_STYLE_ASSIGNMENT((#117));
#58=ADVANCED_FACE('NONE',(#118),#119,.T.);
#59=PRESENTATION_STYLE_ASSIGNMENT((#120));
#60=ADVANCED_FACE('NONE',(#121,#122),#123,.T.);
#61=PRESENTATION_STYLE_ASSIGNMENT((#124));
#62=ADVANCED_FACE('NONE',(#125),#126,.T.);
#63=PRESENTATION_STYLE_ASSIGNMENT((#127));
#64=ADVANCED_FACE('NONE',(#128),#129,.F.);
#65=PRESENTATION_STYLE_ASSIGNMENT((#130));
#66=ADVANCED_FACE('NONE',(#131),#132,.T.);
#67=PRESENTATION_STYLE_ASSIGNMENT((#133));
#68=ADVANCED_FACE('NONE',(#134,#135),#136,.T.);
#69=PRESENTATION_STYLE_ASSIGNMENT((#137));
#70=ADVANCED_FACE('NONE',(#138,#139),#140,.T.);
#71=PRESENTATION_STYLE_ASSIGNMENT((#141));
#72=ADVANCED_FACE('NONE',(#142),#143,.F.);
#73=PRESENTATION_STYLE_ASSIGNMENT((#144));
#74=ADVANCED_FACE('NONE',(#145),#146,.F.);
#75=PRESENTATION_STYLE_ASSIGNMENT((#147));
#76=MANIFOLD_SOLID_BREP('2023_10_16_23_12_43_0409',#148);
#77=PRODUCT('2023_10_16_23_12_43_0409','','PART--DESC',(#149));
#78=PRODUCT_DEFINITION('','NONE',#150,#2);
#79=AXIS2_PLACEMENT_3D('',#151,#152,#153);
#82=LENGTH_MEASURE_WITH_UNIT(LENGTH_MEASURE(1.0),#154);
#85=DIMENSIONAL_EXPONENTS(1.0,0.0,0.0,0.0,0.0,0.0,0.0);
#87=DIMENSIONAL_EXPONENTS(0.0,0.0,0.0,0.0,0.0,0.0,0.0);
#93=SURFACE_STYLE_USAGE(.BOTH.,#155);
#94=FACE_OUTER_BOUND('',#156,.T.);
#95=CYLINDRICAL_SURFACE('',#157,13.5);
#96=SURFACE_STYLE_USAGE(.BOTH.,#155);
#97=FACE_OUTER_BOUND('',#159,.T.);
#98=CONICAL_SURFACE('',#160,13.4999999995513,0.7853981625);
#99=SURFACE_STYLE_USAGE(.BOTH.,#155);
#100=FACE_OUTER_BOUND('',#162,.T.);
#101=CYLINDRICAL_SURFACE('',#163,12.5);
#102=SURFACE_STYLE_USAGE(.BOTH.,#155);
#103=FACE_OUTER_BOUND('',#165,.T.);
#104=CYLINDRICAL_SURFACE('',#166,9.8935);
#105=SURFACE_STYLE_USAGE(.BOTH.,#155);
#106=FACE_OUTER_BOUND('',#168,.T.);
#107=CONICAL_SURFACE('',#169,12.4999999995513,0.785398162500001);
#108=SURFACE_STYLE_USAGE(.BOTH.,#155);
#109=FACE_OUTER_BOUND('',#171,.T.);
#110=CONICAL_SURFACE('',#172,10.4799999994032,0.785398162500001);
#111=SURFACE_STYLE_USAGE(.BOTH.,#155);
#112=FACE_OUTER_BOUND('',#174,.T.);
#113=CYLINDRICAL_SURFACE('',#175,9.15);
#114=SURFACE_STYLE_USAGE(.BOTH.,#155);
#115=FACE_OUTER_BOUND('',#177,.T.);
#116=CYLINDRICAL_SURFACE('',#178,13.5);
#117=SURFACE_STYLE_USAGE(.BOTH.,#155);
#118=FACE_OUTER_BOUND('',#180,.T.);
#119=CONICAL_SURFACE('',#181,13.4999999995513,0.7853981625);
#120=SURFACE_STYLE_USAGE(.BOTH.,#155);
#121=FACE_OUTER_BOUND('',#183,.T.);
#122=FACE_BOUND('',#184,.T.);
#123=PLANE('',#185);
#124=SURFACE_STYLE_USAGE(.BOTH.,#155);
#125=FACE_OUTER_BOUND('',#187,.T.);
#126=CYLINDRICAL_SURFACE('',#188,12.5);
#127=SURFACE_STYLE_USAGE(.BOTH.,#155);
#128=FACE_OUTER_BOUND('',#190,.T.);
#129=CYLINDRICAL_SURFACE('',#191,9.8935);
#130=SURFACE_STYLE_USAGE(.BOTH.,#155);
#131=FACE_OUTER_BOUND('',#193,.T.);
#132=CONICAL_SURFACE('',#194,12.4999999995513,0.785398162500001);
#133=SURFACE_STYLE_USAGE(.BOTH.,#155);
#134=FACE_OUTER_BOUND('',#196,.T.);
#135=FACE_BOUND('',#197,.T.);
#136=PLANE('',#198);
#137=SURFACE_STYLE_USAGE(.BOTH.,#155);
#138=FACE_OUTER_BOUND('',#200,.T.);
#139=FACE_BOUND('',#201,.T.);
#140=PLANE('',#202);
#141=SURFACE_STYLE_USAGE(.BOTH.,#155);
#142=FACE_OUTER_BOUND('',#204,.T.);
#143=CONICAL_SURFACE('',#205,10.4799999994032,0.785398162500001);
#144=SURFACE_STYLE_USAGE(.BOTH.,#155);
#145=FACE_OUTER_BOUND('',#207,.T.);
#146=CYLINDRICAL_SURFACE('',#208,9.15);
#147=SURFACE_STYLE_USAGE(.BOTH.,#155);
#148=CLOSED_SHELL('',(#42,#44,#46,#48,#50,#52,#54,#56,#58,#60,#62,#64,#66,#68,#70,#72,#74));
#149=PRODUCT_CONTEXT('',#28,'mechanical');
#150=PRODUCT_DEFINITION_FORMATION_WITH_SPECIFIED_SOURCE(' ','NONE',#77,.NOT_KNOWN.);
#151=CARTESIAN_POINT('',(0.0,0.0,0.0));
#152=DIRECTION('',(0.0,0.0,1.0));
#153=DIRECTION('',(1.0,0.0,0.0));
#154= (NAMED_UNIT(#85)LENGTH_UNIT()SI_UNIT(.MILLI.,.METRE.));
#155=SURFACE_SIDE_STYLE('',(#211));
#156=EDGE_LOOP('',(#212,#213,#214,#215));
#157=AXIS2_PLACEMENT_3D('',#216,#217,#218);
#159=EDGE_LOOP('',(#220,#221,#222,#223));
#160=AXIS2_PLACEMENT_3D('',#224,#225,#226);
#162=EDGE_LOOP('',(#228,#229,#230,#231));
#163=AXIS2_PLACEMENT_3D('',#232,#233,#234);
#165=EDGE_LOOP('',(#236,#237,#238,#239));
#166=AXIS2_PLACEMENT_3D('',#240,#241,#242);
#168=EDGE_LOOP('',(#244,#245,#246,#247));
#169=AXIS2_PLACEMENT_3D('',#248,#249,#250);
#171=EDGE_LOOP('',(#252,#253,#254,#255));
#172=AXIS2_PLACEMENT_3D('',#256,#257,#258);
#174=EDGE_LOOP('',(#260,#261,#262,#263));
#175=AXIS2_PLACEMENT_3D('',#264,#265,#266);
#177=EDGE_LOOP('',(#268,#269,#270,#271));
#178=AXIS2_PLACEMENT_3D('',#272,#273,#274);
#180=EDGE_LOOP('',(#276,#277,#278,#279));
#181=AXIS2_PLACEMENT_3D('',#280,#281,#282);
#183=EDGE_LOOP('',(#284,#285));
#184=EDGE_LOOP('',(#286,#287));
#185=AXIS2_PLACEMENT_3D('',#288,#289,#290);
#187=EDGE_LOOP('',(#292,#293,#294,#295));
#188=AXIS2_PLACEMENT_3D('',#296,#297,#298);
#190=EDGE_LOOP('',(#300,#301,#302,#303));
#191=AXIS2_PLACEMENT_3D('',#304,#305,#306);
#193=EDGE_LOOP('',(#308,#309,#310,#311));
#194=AXIS2_PLACEMENT_3D('',#312,#313,#314);
#196=EDGE_LOOP('',(#316,#317));
#197=EDGE_LOOP('',(#318,#319));
#198=AXIS2_PLACEMENT_3D('',#320,#321,#322);
#200=EDGE_LOOP('',(#324,#325));
#201=EDGE_LOOP('',(#326,#327));
#202=AXIS2_PLACEMENT_3D('',#328,#329,#330);
#204=EDGE_LOOP('',(#332,#333,#334,#335));
#205=AXIS2_PLACEMENT_3D('',#336,#337,#338);
#207=EDGE_LOOP('',(#340,#341,#342,#343));
#208=AXIS2_PLACEMENT_3D('',#344,#345,#346);
#211=SURFACE_STYLE_FILL_AREA(#348);
#212=ORIENTED_EDGE('',*,*,#349,.T.);
#213=ORIENTED_EDGE('',*,*,#350,.T.);
#214=ORIENTED_EDGE('',*,*,#351,.T.);
#215=ORIENTED_EDGE('',*,*,#352,.F.);
#216=CARTESIAN_POINT('',(13.5,33.2500000004,13.44241138));
#217=DIRECTION('',(0.0,-1.0,0.0));
#218=DIRECTION('',(1.0,0.0,0.0));
#220=ORIENTED_EDGE('',*,*,#354,.T.);
#221=ORIENTED_EDGE('',*,*,#355,.T.);
#222=ORIENTED_EDGE('',*,*,#349,.F.);
#223=ORIENTED_EDGE('',*,*,#356,.F.);
#224=CARTESIAN_POINT('',(13.5,23.0000000008487,13.44241138));
#225=DIRECTION('',(1.60622544077265E-017,1.0,-0.0));
#226=DIRECTION('',(1.0,-1.60622544077265E-017,0.0));
#228=ORIENTED_EDGE('',*,*,#358,.T.);
#229=ORIENTED_EDGE('',*,*,#359,.T.);
#230=ORIENTED_EDGE('',*,*,#354,.F.);
#231=ORIENTED_EDGE('',*,*,#360,.F.);
#232=CARTESIAN_POINT('',(13.5,11.0000000004,13.44241138));
#233=DIRECTION('',(0.0,-1.0,0.0));
#234=DIRECTION('',(1.0,0.0,0.0));
#236=ORIENTED_EDGE('',*,*,#362,.F.);
#237=ORIENTED_EDGE('',*,*,#363,.T.);
#238=ORIENTED_EDGE('',*,*,#364,.F.);
#239=ORIENTED_EDGE('',*,*,#365,.F.);
#240=CARTESIAN_POINT('',(13.5,32.5000000004,13.44241138));
#241=DIRECTION('',(0.0,-1.0,0.0));
#242=DIRECTION('',(1.0,0.0,0.0));
#244=ORIENTED_EDGE('',*,*,#367,.T.);
#245=ORIENTED_EDGE('',*,*,#368,.T.);
#246=ORIENTED_EDGE('',*,*,#358,.F.);
#247=ORIENTED_EDGE('',*,*,#369,.F.);
#248=CARTESIAN_POINT('',(13.5,1.00000000084872,13.44241138));
#249=DIRECTION('',(-0.0,1.0,-0.0));
#250=DIRECTION('',(1.0,0.0,0.0));
#252=ORIENTED_EDGE('',*,*,#371,.F.);
#253=ORIENTED_EDGE('',*,*,#372,.T.);
#254=ORIENTED_EDGE('',*,*,#373,.F.);
#255=ORIENTED_EDGE('',*,*,#374,.F.);
#256=CARTESIAN_POINT('',(13.5,21.5000000009968,13.44241138));
#257=DIRECTION('',(-0.0,1.0,-0.0));
#258=DIRECTION('',(1.0,0.0,0.0));
#260=ORIENTED_EDGE('',*,*,#376,.F.);
#261=ORIENTED_EDGE('',*,*,#377,.T.);
#262=ORIENTED_EDGE('',*,*,#371,.T.);
#263=ORIENTED_EDGE('',*,*,#378,.F.);
#264=CARTESIAN_POINT('',(13.5,10.0850000004,13.44241138));
#265=DIRECTION('',(0.0,-1.0,0.0));
#266=DIRECTION('',(1.0,0.0,0.0));
#268=ORIENTED_EDGE('',*,*,#350,.F.);
#269=ORIENTED_EDGE('',*,*,#380,.T.);
#270=ORIENTED_EDGE('',*,*,#352,.T.);
#271=ORIENTED_EDGE('',*,*,#381,.T.);
#272=CARTESIAN_POINT('',(13.5,33.2500000004,13.44241138));
#273=DIRECTION('',(0.0,-1.0,0.0));
#274=DIRECTION('',(1.0,0.0,0.0));
#276=ORIENTED_EDGE('',*,*,#355,.F.);
#277=ORIENTED_EDGE('',*,*,#383,.T.);
#278=ORIENTED_EDGE('',*,*,#356,.T.);
#279=ORIENTED_EDGE('',*,*,#380,.F.);
#280=CARTESIAN_POINT('',(13.5,23.0000000008487,13.44241138));
#281=DIRECTION('',(1.60622544077265E-017,1.0,-0.0));
#282=DIRECTION('',(1.0,-1.60622544077265E-017,0.0));
#284=ORIENTED_EDGE('',*,*,#381,.F.);
#285=ORIENTED_EDGE('',*,*,#351,.F.);
#286=ORIENTED_EDGE('',*,*,#364,.T.);
#287=ORIENTED_EDGE('',*,*,#385,.T.);
#288=CARTESIAN_POINT('',(13.5,43.5000000004,20.19241138));
#289=DIRECTION('',(-0.0,1.0,0.0));
#290=DIRECTION('',(1.0,0.0,0.0));
#292=ORIENTED_EDGE('',*,*,#359,.F.);
#293=ORIENTED_EDGE('',*,*,#387,.T.);
#294=ORIENTED_EDGE('',*,*,#360,.T.);
#295=ORIENTED_EDGE('',*,*,#383,.F.);
#296=CARTESIAN_POINT('',(13.5,11.0000000004,13.44241138));
#297=DIRECTION('',(0.0,-1.0,0.0));
#298=DIRECTION('',(1.0,0.0,0.0));
#300=ORIENTED_EDGE('',*,*,#363,.F.);
#301=ORIENTED_EDGE('',*,*,#389,.F.);
#302=ORIENTED_EDGE('',*,*,#365,.T.);
#303=ORIENTED_EDGE('',*,*,#385,.F.);
#304=CARTESIAN_POINT('',(13.5,32.5000000004,13.44241138));
#305=DIRECTION('',(0.0,-1.0,0.0));
#306=DIRECTION('',(1.0,0.0,0.0));
#308=ORIENTED_EDGE('',*,*,#368,.F.);
#309=ORIENTED_EDGE('',*,*,#391,.T.);
#310=ORIENTED_EDGE('',*,*,#369,.T.);
#311=ORIENTED_EDGE('',*,*,#387,.F.);
#312=CARTESIAN_POINT('',(13.5,1.00000000084872,13.44241138));
#313=DIRECTION('',(-0.0,1.0,-0.0));
#314=DIRECTION('',(1.0,0.0,0.0));
#316=ORIENTED_EDGE('',*,*,#373,.T.);
#317=ORIENTED_EDGE('',*,*,#393,.T.);
#318=ORIENTED_EDGE('',*,*,#389,.T.);
#319=ORIENTED_EDGE('',*,*,#362,.T.);
#320=CARTESIAN_POINT('',(13.5,21.5000000004,18.68241138));
#321=DIRECTION('',(0.0,-1.0,0.0));
#322=DIRECTION('',(0.0,0.0,-1.0));
#324=ORIENTED_EDGE('',*,*,#367,.F.);
#325=ORIENTED_EDGE('',*,*,#391,.F.);
#326=ORIENTED_EDGE('',*,*,#395,.T.);
#327=ORIENTED_EDGE('',*,*,#376,.T.);
#328=CARTESIAN_POINT('',(13.5,4.00000033096148E-010,24.26741138));
#329=DIRECTION('',(0.0,-1.0,0.0));
#330=DIRECTION('',(0.0,0.0,-1.0));
#332=ORIENTED_EDGE('',*,*,#372,.F.);
#333=ORIENTED_EDGE('',*,*,#397,.F.);
#334=ORIENTED_EDGE('',*,*,#374,.T.);
#335=ORIENTED_EDGE('',*,*,#393,.F.);
#336=CARTESIAN_POINT('',(13.5,21.5000000009968,13.44241138));
#337=DIRECTION('',(-0.0,1.0,-0.0));
#338=DIRECTION('',(1.0,0.0,0.0));
#340=ORIENTED_EDGE('',*,*,#377,.F.);
#341=ORIENTED_EDGE('',*,*,#395,.F.);
#342=ORIENTED_EDGE('',*,*,#378,.T.);
#343=ORIENTED_EDGE('',*,*,#397,.T.);
#344=CARTESIAN_POINT('',(13.5,10.0850000004,13.44241138));
#345=DIRECTION('',(0.0,-1.0,0.0));
#346=DIRECTION('',(1.0,0.0,0.0));
#348=FILL_AREA_STYLE('',(#400));
#349=EDGE_CURVE('NONE',#401,#402,#403,.T.);
#350=EDGE_CURVE('NONE',#402,#404,#405,.T.);
#351=EDGE_CURVE('NONE',#404,#406,#407,.T.);
#352=EDGE_CURVE('NONE',#401,#406,#408,.T.);
#354=EDGE_CURVE('NONE',#410,#411,#412,.T.);
#355=EDGE_CURVE('NONE',#411,#402,#413,.T.);
#356=EDGE_CURVE('NONE',#410,#401,#414,.T.);
#358=EDGE_CURVE('NONE',#416,#417,#418,.T.);
#359=EDGE_CURVE('NONE',#417,#411,#419,.T.);
#360=EDGE_CURVE('NONE',#416,#410,#420,.T.);
#362=EDGE_CURVE('NONE',#422,#423,#424,.T.);
#363=EDGE_CURVE('NONE',#422,#425,#426,.T.);
#364=EDGE_CURVE('NONE',#427,#425,#428,.T.);
#365=EDGE_CURVE('NONE',#423,#427,#429,.T.);
#367=EDGE_CURVE('NONE',#431,#432,#433,.T.);
#368=EDGE_CURVE('NONE',#432,#417,#434,.T.);
#369=EDGE_CURVE('NONE',#431,#416,#435,.T.);
#371=EDGE_CURVE('NONE',#437,#438,#439,.T.);
#372=EDGE_CURVE('NONE',#437,#440,#441,.T.);
#373=EDGE_CURVE('NONE',#442,#440,#443,.T.);
#374=EDGE_CURVE('NONE',#438,#442,#444,.T.);
#376=EDGE_CURVE('NONE',#446,#447,#448,.T.);
#377=EDGE_CURVE('NONE',#446,#437,#449,.T.);
#378=EDGE_CURVE('NONE',#447,#438,#450,.T.);
#380=EDGE_CURVE('NONE',#402,#401,#452,.T.);
#381=EDGE_CURVE('NONE',#406,#404,#453,.T.);
#383=EDGE_CURVE('NONE',#411,#410,#455,.T.);
#385=EDGE_CURVE('NONE',#425,#427,#457,.T.);
#387=EDGE_CURVE('NONE',#417,#416,#459,.T.);
#389=EDGE_CURVE('NONE',#423,#422,#461,.T.);
#391=EDGE_CURVE('NONE',#432,#431,#463,.T.);
#393=EDGE_CURVE('NONE',#440,#442,#465,.T.);
#395=EDGE_CURVE('NONE',#447,#446,#467,.T.);
#397=EDGE_CURVE('NONE',#438,#437,#469,.T.);
#400=FILL_AREA_STYLE_COLOUR('',#472);
#401=VERTEX_POINT('NONE',#473);
#402=VERTEX_POINT('NONE',#474);
#403=CIRCLE('',#475,13.5);
#404=VERTEX_POINT('NONE',#476);
#405=LINE('',#477,#478);
#406=VERTEX_POINT('NONE',#479);
#407=CIRCLE('',#480,13.5);
#408=LINE('',#481,#482);
#410=VERTEX_POINT('NONE',#484);
#411=VERTEX_POINT('NONE',#485);
#412=CIRCLE('',#486,12.5000000004487);
#413=LINE('',#487,#488);
#414=LINE('',#489,#490);
#416=VERTEX_POINT('NONE',#492);
#417=VERTEX_POINT('NONE',#493);
#418=CIRCLE('',#494,12.5);
#419=LINE('',#495,#496);
#420=LINE('',#497,#498);
#422=VERTEX_POINT('NONE',#500);
#423=VERTEX_POINT('NONE',#501);
#424=CIRCLE('',#502,9.8935);
#425=VERTEX_POINT('NONE',#503);
#426=LINE('',#504,#505);
#427=VERTEX_POINT('NONE',#506);
#428=CIRCLE('',#507,9.8935);
#429=LINE('',#508,#509);
#431=VERTEX_POINT('NONE',#511);
#432=VERTEX_POINT('NONE',#512);
#433=CIRCLE('',#513,11.5000000004487);
#434=LINE('',#514,#515);
#435=LINE('',#516,#517);
#437=VERTEX_POINT('NONE',#519);
#438=VERTEX_POINT('NONE',#520);
#439=CIRCLE('',#521,9.1500000005968);
#440=VERTEX_POINT('NONE',#522);
#441=LINE('',#523,#524);
#442=VERTEX_POINT('NONE',#525);
#443=CIRCLE('',#526,10.4799999994032);
#444=LINE('',#527,#528);
#446=VERTEX_POINT('NONE',#530);
#447=VERTEX_POINT('NONE',#531);
#448=CIRCLE('',#532,9.15);
#449=LINE('',#533,#534);
#450=LINE('',#535,#536);
#452=CIRCLE('',#538,13.5);
#453=CIRCLE('',#539,13.5);
#455=CIRCLE('',#541,12.5000000004487);
#457=CIRCLE('',#543,9.8935);
#459=CIRCLE('',#545,12.5);
#461=CIRCLE('',#547,9.8935);
#463=CIRCLE('',#549,11.5000000004487);
#465=CIRCLE('',#551,10.4799999994032);
#467=CIRCLE('',#553,9.15);
#469=CIRCLE('',#555,9.1500000005968);
#472=COLOUR_RGB('',0.141176477074623,0.141176477074623,0.141176477074623);
#473=CARTESIAN_POINT('',(26.9999999991026,23.0000000004,13.44241138));
#474=CARTESIAN_POINT('',(8.97443896974437E-010,23.0000000004,13.44241138));
#475=AXIS2_PLACEMENT_3D('',#558,#559,#560);
#476=CARTESIAN_POINT('',(-3.5527136788005E-015,43.5000000004,13.44241138));
#477=CARTESIAN_POINT('',(-3.5527136788005E-015,33.2500000004,13.44241138));
#478=VECTOR('',#561,1000.0);
#479=CARTESIAN_POINT('',(27.0,43.5000000004,13.44241138));
#480=AXIS2_PLACEMENT_3D('',#562,#563,#564);
#481=CARTESIAN_POINT('',(27.0,33.2500000004,13.44241138));
#482=VECTOR('',#565,1000.0);
#484=CARTESIAN_POINT('',(26.0000000004487,21.9999999999513,13.44241138));
#485=CARTESIAN_POINT('',(0.999999999551275,21.9999999999513,13.44241138));
#486=AXIS2_PLACEMENT_3D('',#566,#567,#568);
#487=CARTESIAN_POINT('',(4.48720172130379E-010,23.0000000008487,13.44241138));
#488=VECTOR('',#569,1000.0);
#489=CARTESIAN_POINT('',(26.9999999995513,23.0000000008487,13.44241138));
#490=VECTOR('',#570,1000.0);
#492=CARTESIAN_POINT('',(25.9999999991026,1.0000000004,13.44241138));
#493=CARTESIAN_POINT('',(1.00000000089744,1.0000000004,13.44241138));
#494=AXIS2_PLACEMENT_3D('',#571,#572,#573);
#495=CARTESIAN_POINT('',(1.0,11.0000000004,13.44241138));
#496=VECTOR('',#574,1000.0);
#497=CARTESIAN_POINT('',(26.0,11.0000000004,13.44241138));
#498=VECTOR('',#575,1000.0);
#500=CARTESIAN_POINT('',(3.6065,21.5000000004,13.44241138));
#501=CARTESIAN_POINT('',(23.3935,21.5000000004,13.44241138));
#502=AXIS2_PLACEMENT_3D('',#576,#577,#578);
#503=CARTESIAN_POINT('',(3.6065,43.5000000004,13.44241138));
#504=CARTESIAN_POINT('',(3.6065,32.5000000004,13.44241138));
#505=VECTOR('',#579,1000.0);
#506=CARTESIAN_POINT('',(23.3935,43.5000000004,13.44241138));
#507=AXIS2_PLACEMENT_3D('',#580,#581,#582);
#508=CARTESIAN_POINT('',(23.3935,32.5000000004,13.44241138));
#509=VECTOR('',#583,1000.0);
#511=CARTESIAN_POINT('',(25.0000000004487,-4.87290208184277E-011,13.44241138));
#512=CARTESIAN_POINT('',(1.99999999955127,-4.87290208184277E-011,13.44241138));
#513=AXIS2_PLACEMENT_3D('',#584,#585,#586);
#514=CARTESIAN_POINT('',(1.00000000044872,1.00000000084872,13.44241138));
#515=VECTOR('',#587,1000.0);
#516=CARTESIAN_POINT('',(25.9999999995513,1.00000000084872,13.44241138));
#517=VECTOR('',#588,1000.0);
#519=CARTESIAN_POINT('',(4.3499999994032,20.1699999998032,13.44241138));
#520=CARTESIAN_POINT('',(22.6500000005968,20.1699999998032,13.44241138));
#521=AXIS2_PLACEMENT_3D('',#589,#590,#591);
#522=CARTESIAN_POINT('',(3.0200000005968,21.5000000009968,13.44241138));
#523=CARTESIAN_POINT('',(3.0200000005968,21.5000000009968,13.44241138));
#524=VECTOR('',#592,1000.0);
#525=CARTESIAN_POINT('',(23.9799999994032,21.5000000009968,13.44241138));
#526=AXIS2_PLACEMENT_3D('',#593,#594,#595);
#527=CARTESIAN_POINT('',(23.9799999994032,21.5000000009968,13.44241138));
#528=VECTOR('',#596,1000.0);
#530=CARTESIAN_POINT('',(4.35,4.00000033096148E-010,13.44241138));
#531=CARTESIAN_POINT('',(22.65,4.00000033096148E-010,13.44241138));
#532=AXIS2_PLACEMENT_3D('',#597,#598,#599);
#533=CARTESIAN_POINT('',(4.35,10.0850000004,13.44241138));
#534=VECTOR('',#600,1000.0);
#535=CARTESIAN_POINT('',(22.65,10.0850000004,13.44241138));
#536=VECTOR('',#601,1000.0);
#538=AXIS2_PLACEMENT_3D('',#602,#603,#604);
#539=AXIS2_PLACEMENT_3D('',#605,#606,#607);
#541=AXIS2_PLACEMENT_3D('',#608,#609,#610);
#543=AXIS2_PLACEMENT_3D('',#611,#612,#613);
#545=AXIS2_PLACEMENT_3D('',#614,#615,#616);
#547=AXIS2_PLACEMENT_3D('',#617,#618,#619);
#549=AXIS2_PLACEMENT_3D('',#620,#621,#622);
#551=AXIS2_PLACEMENT_3D('',#623,#624,#625);
#553=AXIS2_PLACEMENT_3D('',#626,#627,#628);
#555=AXIS2_PLACEMENT_3D('',#629,#630,#631);
#558=CARTESIAN_POINT('',(13.5,23.0000000004,13.44241138));
#559=DIRECTION('',(-0.0,1.0,0.0));
#560=DIRECTION('',(1.0,0.0,0.0));
#561=DIRECTION('',(0.0,1.0,0.0));
#562=CARTESIAN_POINT('',(13.5,43.5000000004,13.44241138));
#563=DIRECTION('',(0.0,-1.0,0.0));
#564=DIRECTION('',(1.0,0.0,0.0));
#565=DIRECTION('',(0.0,1.0,0.0));
#566=CARTESIAN_POINT('',(13.5,21.9999999999513,13.44241138));
#567=DIRECTION('',(0.0,1.0,3.46944695182907E-017));
#568=DIRECTION('',(0.0,-3.46944695182907E-017,1.0));
#569=DIRECTION('',(-0.707106780551956,0.707106781821139,-8.65956055458342E-017));
#570=DIRECTION('',(0.707106780551956,0.707106781821139,0.0));
#571=CARTESIAN_POINT('',(13.5,1.0000000004,13.44241138));
#572=DIRECTION('',(-0.0,1.0,0.0));
#573=DIRECTION('',(1.0,0.0,0.0));
#574=DIRECTION('',(0.0,1.0,0.0));
#575=DIRECTION('',(0.0,1.0,0.0));
#576=CARTESIAN_POINT('',(13.5,21.5000000004,13.44241138));
#577=DIRECTION('',(-0.0,1.0,0.0));
#578=DIRECTION('',(1.0,0.0,0.0));
#579=DIRECTION('',(0.0,1.0,0.0));
#580=CARTESIAN_POINT('',(13.5,43.5000000004,13.44241138));
#581=DIRECTION('',(0.0,-1.0,0.0));
#582=DIRECTION('',(1.0,0.0,0.0));
#583=DIRECTION('',(0.0,1.0,0.0));
#584=CARTESIAN_POINT('',(13.5,-4.87290208184277E-011,13.44241138));
#585=DIRECTION('',(-0.0,1.0,0.0));
#586=DIRECTION('',(1.0,0.0,0.0));
#587=DIRECTION('',(-0.707106780551956,0.707106781821139,-8.65956055458343E-017));
#588=DIRECTION('',(0.707106780551956,0.707106781821139,0.0));
#589=CARTESIAN_POINT('',(13.5,20.1699999998032,13.44241138));
#590=DIRECTION('',(0.0,1.0,-4.73968162804279E-017));
#591=DIRECTION('',(0.0,4.73968162804279E-017,1.0));
#592=DIRECTION('',(-0.707106780551956,0.707106781821139,-8.65956055458344E-017));
#593=CARTESIAN_POINT('',(13.5,21.5000000009968,13.44241138));
#594=DIRECTION('',(0.0,-1.0,0.0));
#595=DIRECTION('',(1.0,0.0,0.0));
#596=DIRECTION('',(0.707106780551956,0.707106781821139,0.0));
#597=CARTESIAN_POINT('',(13.5,4.00000033096148E-010,13.44241138));
#598=DIRECTION('',(-0.0,1.0,0.0));
#599=DIRECTION('',(1.0,0.0,0.0));
#600=DIRECTION('',(0.0,1.0,0.0));
#601=DIRECTION('',(0.0,1.0,0.0));
#602=CARTESIAN_POINT('',(13.5,23.0000000004,13.44241138));
#603=DIRECTION('',(-0.0,1.0,0.0));
#604=DIRECTION('',(1.0,0.0,0.0));
#605=CARTESIAN_POINT('',(13.5,43.5000000004,13.44241138));
#606=DIRECTION('',(0.0,-1.0,0.0));
#607=DIRECTION('',(1.0,0.0,0.0));
#608=CARTESIAN_POINT('',(13.5,21.9999999999513,13.44241138));
#609=DIRECTION('',(0.0,1.0,3.46944695182907E-017));
#610=DIRECTION('',(0.0,-3.46944695182907E-017,1.0));
#611=CARTESIAN_POINT('',(13.5,43.5000000004,13.44241138));
#612=DIRECTION('',(0.0,-1.0,0.0));
#613=DIRECTION('',(1.0,0.0,0.0));
#614=CARTESIAN_POINT('',(13.5,1.0000000004,13.44241138));
#615=DIRECTION('',(-0.0,1.0,0.0));
#616=DIRECTION('',(1.0,0.0,0.0));
#617=CARTESIAN_POINT('',(13.5,21.5000000004,13.44241138));
#618=DIRECTION('',(-0.0,1.0,0.0));
#619=DIRECTION('',(1.0,0.0,0.0));
#620=CARTESIAN_POINT('',(13.5,-4.87290208184277E-011,13.44241138));
#621=DIRECTION('',(-0.0,1.0,0.0));
#622=DIRECTION('',(1.0,0.0,0.0));
#623=CARTESIAN_POINT('',(13.5,21.5000000009968,13.44241138));
#624=DIRECTION('',(0.0,-1.0,0.0));
#625=DIRECTION('',(1.0,0.0,0.0));
#626=CARTESIAN_POINT('',(13.5,4.00000033096148E-010,13.44241138));
#627=DIRECTION('',(-0.0,1.0,0.0));
#628=DIRECTION('',(1.0,0.0,0.0));
#629=CARTESIAN_POINT('',(13.5,20.1699999998032,13.44241138));
#630=DIRECTION('',(0.0,1.0,-4.73968162804279E-017));
#631=DIRECTION('',(0.0,4.73968162804279E-017,1.0));
#632=PRESENTATION_LAYER_ASSIGNMENT('-1','NONE',(#42,#44,#46,#48,#50,#52,#54,#56,#58,#60,#62,#64,#66,#68,#70,#72,#74,#76));
ENDSEC;
END-ISO-10303-21;

