ISO-10303-21;
HEADER;
FILE_DESCRIPTION(('STEP AP214'),'1');
FILE_NAME('cctmp_B5070D50-87A5-4590-9EB8-C9897A402136_2024_11_20_13_28_59_0994..stp','2024-11-20T12:29:00',('SIEMENS A&D'),('CADClick - www.CADClick.com'),'Spatial InterOp 3D',' ','unknown authorization');
FILE_SCHEMA(('AUTOMOTIVE_DESIGN'));
ENDSEC;
DATA;
#1=MECHANICAL_DESIGN_GEOMETRIC_PRESENTATION_REPRESENTATION(' ',(#10,#11,#12,#13,#14,#15,#16,#17,#18,#19,#20,#21,#22,#23,#24,#25),#6);
#2=PRODUCT_DEFINITION_CONTEXT('',#26,'design');
#3=APPLICATION_PROTOCOL_DEFINITION('INTERNATIONAL STANDARD','automotive_design',1994,#26);
#4=PRODUCT_CATEGORY_RELATIONSHIP('NONE','NONE',#27,#28);
#5=SHAPE_DEFINITION_REPRESENTATION(#29,#30);
#6= (GEOMETRIC_REPRESENTATION_CONTEXT(3)GLOBAL_UNCERTAINTY_ASSIGNED_CONTEXT((#33))GLOBAL_UNIT_ASSIGNED_CONTEXT((#35,#36,#37))REPRESENTATION_CONTEXT('NONE','WORKSPACE'));
#10=STYLED_ITEM('',(#39),#40);
#11=STYLED_ITEM('',(#41),#42);
#12=STYLED_ITEM('',(#43),#44);
#13=STYLED_ITEM('',(#45),#46);
#14=STYLED_ITEM('',(#47),#48);
#15=STYLED_ITEM('',(#49),#50);
#16=STYLED_ITEM('',(#51),#52);
#17=STYLED_ITEM('',(#53),#54);
#18=STYLED_ITEM('',(#55),#56);
#19=STYLED_ITEM('',(#57),#58);
#20=STYLED_ITEM('',(#59),#60);
#21=STYLED_ITEM('',(#61),#62);
#22=STYLED_ITEM('',(#63),#64);
#23=STYLED_ITEM('',(#65),#66);
#24=STYLED_ITEM('',(#67),#68);
#25=STYLED_ITEM('',(#69),#70);
#26=APPLICATION_CONTEXT(' ');
#27=PRODUCT_CATEGORY('part','NONE');
#28=PRODUCT_RELATED_PRODUCT_CATEGORY('detail',' ',(#71));
#29=PRODUCT_DEFINITION_SHAPE('NONE','NONE',#72);
#30=ADVANCED_BREP_SHAPE_REPRESENTATION('2024_11_20_13_28_59_0971',(#70,#73),#6);
#33=UNCERTAINTY_MEASURE_WITH_UNIT(LENGTH_MEASURE(1.0E-006),#35,'','');
#35= (CONVERSION_BASED_UNIT('MILLIMETRE',#76)LENGTH_UNIT()NAMED_UNIT(#79));
#36= (NAMED_UNIT(#81)PLANE_ANGLE_UNIT()SI_UNIT($,.RADIAN.));
#37= (NAMED_UNIT(#81)SOLID_ANGLE_UNIT()SI_UNIT($,.STERADIAN.));
#39=PRESENTATION_STYLE_ASSIGNMENT((#87));
#40=ADVANCED_FACE('',(#88),#89,.T.);
#41=PRESENTATION_STYLE_ASSIGNMENT((#90));
#42=ADVANCED_FACE('',(#91),#92,.T.);
#43=PRESENTATION_STYLE_ASSIGNMENT((#93));
#44=ADVANCED_FACE('',(#94),#95,.F.);
#45=PRESENTATION_STYLE_ASSIGNMENT((#96));
#46=ADVANCED_FACE('',(#97),#98,.F.);
#47=PRESENTATION_STYLE_ASSIGNMENT((#99));
#48=ADVANCED_FACE('',(#100),#101,.T.);
#49=PRESENTATION_STYLE_ASSIGNMENT((#102));
#50=ADVANCED_FACE('',(#103,#104),#105,.T.);
#51=PRESENTATION_STYLE_ASSIGNMENT((#106));
#52=ADVANCED_FACE('',(#107),#108,.T.);
#53=PRESENTATION_STYLE_ASSIGNMENT((#109));
#54=ADVANCED_FACE('',(#110),#111,.T.);
#55=PRESENTATION_STYLE_ASSIGNMENT((#112));
#56=ADVANCED_FACE('',(#113),#114,.T.);
#57=PRESENTATION_STYLE_ASSIGNMENT((#115));
#58=ADVANCED_FACE('',(#116),#117,.T.);
#59=PRESENTATION_STYLE_ASSIGNMENT((#118));
#60=ADVANCED_FACE('',(#119),#120,.T.);
#61=PRESENTATION_STYLE_ASSIGNMENT((#121));
#62=ADVANCED_FACE('',(#122),#123,.T.);
#63=PRESENTATION_STYLE_ASSIGNMENT((#124));
#64=ADVANCED_FACE('',(#125),#126,.T.);
#65=PRESENTATION_STYLE_ASSIGNMENT((#127));
#66=ADVANCED_FACE('',(#128,#129),#130,.F.);
#67=PRESENTATION_STYLE_ASSIGNMENT((#131));
#68=ADVANCED_FACE('',(#132,#133),#134,.T.);
#69=PRESENTATION_STYLE_ASSIGNMENT((#135));
#70=MANIFOLD_SOLID_BREP('2024_11_20_13_28_59_0971',#136);
#71=PRODUCT('2024_11_20_13_28_59_0971','','PART--DESC',(#137));
#72=PRODUCT_DEFINITION('','NONE',#138,#2);
#73=AXIS2_PLACEMENT_3D('',#139,#140,#141);
#76=LENGTH_MEASURE_WITH_UNIT(LENGTH_MEASURE(1.0),#142);
#79=DIMENSIONAL_EXPONENTS(1.0,0.0,0.0,0.0,0.0,0.0,0.0);
#81=DIMENSIONAL_EXPONENTS(0.0,0.0,0.0,0.0,0.0,0.0,0.0);
#87=SURFACE_STYLE_USAGE(.BOTH.,#143);
#88=FACE_OUTER_BOUND('',#144,.T.);
#89=CYLINDRICAL_SURFACE('',#145,7.425);
#90=SURFACE_STYLE_USAGE(.BOTH.,#146);
#91=FACE_OUTER_BOUND('',#147,.T.);
#92=CONICAL_SURFACE('',#148,7.425,0.0872664625997163);
#93=SURFACE_STYLE_USAGE(.BOTH.,#149);
#94=FACE_OUTER_BOUND('',#150,.T.);
#95=CYLINDRICAL_SURFACE('',#151,6.0);
#96=SURFACE_STYLE_USAGE(.BOTH.,#152);
#97=FACE_OUTER_BOUND('',#153,.T.);
#98=CYLINDRICAL_SURFACE('',#154,6.0);
#99=SURFACE_STYLE_USAGE(.BOTH.,#155);
#100=FACE_OUTER_BOUND('',#156,.T.);
#101=CONICAL_SURFACE('',#157,7.425,0.0872664625997163);
#102=SURFACE_STYLE_USAGE(.BOTH.,#158);
#103=FACE_BOUND('',#159,.T.);
#104=FACE_OUTER_BOUND('',#160,.T.);
#105=PLANE('',#161);
#106=SURFACE_STYLE_USAGE(.BOTH.,#162);
#107=FACE_OUTER_BOUND('',#163,.T.);
#108=CYLINDRICAL_SURFACE('',#164,7.425);
#109=SURFACE_STYLE_USAGE(.BOTH.,#165);
#110=FACE_OUTER_BOUND('',#166,.T.);
#111=PLANE('',#167);
#112=SURFACE_STYLE_USAGE(.BOTH.,#168);
#113=FACE_OUTER_BOUND('',#169,.T.);
#114=PLANE('',#170);
#115=SURFACE_STYLE_USAGE(.BOTH.,#171);
#116=FACE_OUTER_BOUND('',#172,.T.);
#117=PLANE('',#173);
#118=SURFACE_STYLE_USAGE(.BOTH.,#174);
#119=FACE_OUTER_BOUND('',#175,.T.);
#120=PLANE('',#176);
#121=SURFACE_STYLE_USAGE(.BOTH.,#177);
#122=FACE_OUTER_BOUND('',#178,.T.);
#123=PLANE('',#179);
#124=SURFACE_STYLE_USAGE(.BOTH.,#180);
#125=FACE_OUTER_BOUND('',#181,.T.);
#126=PLANE('',#182);
#127=SURFACE_STYLE_USAGE(.BOTH.,#183);
#128=FACE_BOUND('',#184,.T.);
#129=FACE_OUTER_BOUND('',#185,.T.);
#130=PLANE('',#186);
#131=SURFACE_STYLE_USAGE(.BOTH.,#187);
#132=FACE_BOUND('',#188,.T.);
#133=FACE_OUTER_BOUND('',#189,.T.);
#134=PLANE('',#190);
#135=SURFACE_STYLE_USAGE(.BOTH.,#191);
#136=CLOSED_SHELL('',(#40,#42,#44,#46,#48,#50,#52,#54,#56,#58,#60,#62,#64,#66,#68));
#137=PRODUCT_CONTEXT('',#26,'mechanical');
#138=PRODUCT_DEFINITION_FORMATION_WITH_SPECIFIED_SOURCE(' ','NONE',#71,.NOT_KNOWN.);
#139=CARTESIAN_POINT('',(0.0,0.0,0.0));
#140=DIRECTION('',(0.0,0.0,1.0));
#141=DIRECTION('',(1.0,0.0,0.0));
#142= (NAMED_UNIT(#79)LENGTH_UNIT()SI_UNIT(.MILLI.,.METRE.));
#143=SURFACE_SIDE_STYLE('',(#193));
#144=EDGE_LOOP('',(#194,#195,#196,#197));
#145=AXIS2_PLACEMENT_3D('',#198,#199,#200);
#146=SURFACE_SIDE_STYLE('',(#201));
#147=EDGE_LOOP('',(#202,#203,#204,#205));
#148=AXIS2_PLACEMENT_3D('',#206,#207,#208);
#149=SURFACE_SIDE_STYLE('',(#209));
#150=EDGE_LOOP('',(#210,#211,#212,#213));
#151=AXIS2_PLACEMENT_3D('',#214,#215,#216);
#152=SURFACE_SIDE_STYLE('',(#217));
#153=EDGE_LOOP('',(#218,#219,#220,#221));
#154=AXIS2_PLACEMENT_3D('',#222,#223,#224);
#155=SURFACE_SIDE_STYLE('',(#225));
#156=EDGE_LOOP('',(#226,#227,#228,#229));
#157=AXIS2_PLACEMENT_3D('',#230,#231,#232);
#158=SURFACE_SIDE_STYLE('',(#233));
#159=EDGE_LOOP('',(#234,#235));
#160=EDGE_LOOP('',(#236,#237));
#161=AXIS2_PLACEMENT_3D('',#238,#239,#240);
#162=SURFACE_SIDE_STYLE('',(#241));
#163=EDGE_LOOP('',(#242,#243,#244,#245));
#164=AXIS2_PLACEMENT_3D('',#246,#247,#248);
#165=SURFACE_SIDE_STYLE('',(#249));
#166=EDGE_LOOP('',(#250,#251,#252,#253));
#167=AXIS2_PLACEMENT_3D('',#254,#255,#256);
#168=SURFACE_SIDE_STYLE('',(#257));
#169=EDGE_LOOP('',(#258,#259,#260,#261));
#170=AXIS2_PLACEMENT_3D('',#262,#263,#264);
#171=SURFACE_SIDE_STYLE('',(#265));
#172=EDGE_LOOP('',(#266,#267,#268,#269));
#173=AXIS2_PLACEMENT_3D('',#270,#271,#272);
#174=SURFACE_SIDE_STYLE('',(#273));
#175=EDGE_LOOP('',(#274,#275,#276,#277));
#176=AXIS2_PLACEMENT_3D('',#278,#279,#280);
#177=SURFACE_SIDE_STYLE('',(#281));
#178=EDGE_LOOP('',(#282,#283,#284,#285));
#179=AXIS2_PLACEMENT_3D('',#286,#287,#288);
#180=SURFACE_SIDE_STYLE('',(#289));
#181=EDGE_LOOP('',(#290,#291,#292,#293));
#182=AXIS2_PLACEMENT_3D('',#294,#295,#296);
#183=SURFACE_SIDE_STYLE('',(#297));
#184=EDGE_LOOP('',(#298,#299));
#185=EDGE_LOOP('',(#300,#301,#302,#303,#304,#305));
#186=AXIS2_PLACEMENT_3D('',#306,#307,#308);
#187=SURFACE_SIDE_STYLE('',(#309));
#188=EDGE_LOOP('',(#310,#311));
#189=EDGE_LOOP('',(#312,#313,#314,#315,#316,#317));
#190=AXIS2_PLACEMENT_3D('',#318,#319,#320);
#191=SURFACE_SIDE_STYLE('',(#321));
#193=SURFACE_STYLE_FILL_AREA(#322);
#194=ORIENTED_EDGE('',*,*,#323,.F.);
#195=ORIENTED_EDGE('',*,*,#324,.F.);
#196=ORIENTED_EDGE('',*,*,#325,.F.);
#197=ORIENTED_EDGE('',*,*,#326,.T.);
#198=CARTESIAN_POINT('',(9.5,0.0,10.9696551146));
#199=DIRECTION('',(0.0,1.0,0.0));
#200=DIRECTION('',(1.0,0.0,-3.54302775660279E-017));
#201=SURFACE_STYLE_FILL_AREA(#327);
#202=ORIENTED_EDGE('',*,*,#328,.F.);
#203=ORIENTED_EDGE('',*,*,#326,.F.);
#204=ORIENTED_EDGE('',*,*,#329,.F.);
#205=ORIENTED_EDGE('',*,*,#330,.T.);
#206=CARTESIAN_POINT('',(9.5,7.5,10.9696551146));
#207=DIRECTION('',(-0.0,-1.0,-0.0));
#208=DIRECTION('',(1.0,0.0,-3.54302775660279E-017));
#209=SURFACE_STYLE_FILL_AREA(#331);
#210=ORIENTED_EDGE('',*,*,#332,.F.);
#211=ORIENTED_EDGE('',*,*,#333,.F.);
#212=ORIENTED_EDGE('',*,*,#334,.F.);
#213=ORIENTED_EDGE('',*,*,#335,.F.);
#214=CARTESIAN_POINT('',(9.5,0.0,10.9696551146));
#215=DIRECTION('',(-0.0,1.0,0.0));
#216=DIRECTION('',(1.0,0.0,4.31306681499087E-016));
#217=SURFACE_STYLE_FILL_AREA(#336);
#218=ORIENTED_EDGE('',*,*,#332,.T.);
#219=ORIENTED_EDGE('',*,*,#337,.F.);
#220=ORIENTED_EDGE('',*,*,#334,.T.);
#221=ORIENTED_EDGE('',*,*,#338,.F.);
#222=CARTESIAN_POINT('',(9.5,0.0,10.9696551146));
#223=DIRECTION('',(-0.0,1.0,0.0));
#224=DIRECTION('',(1.0,0.0,4.31306681499087E-016));
#225=SURFACE_STYLE_FILL_AREA(#339);
#226=ORIENTED_EDGE('',*,*,#328,.T.);
#227=ORIENTED_EDGE('',*,*,#340,.T.);
#228=ORIENTED_EDGE('',*,*,#329,.T.);
#229=ORIENTED_EDGE('',*,*,#341,.F.);
#230=CARTESIAN_POINT('',(9.5,7.5,10.9696551146));
#231=DIRECTION('',(-0.0,-1.0,-0.0));
#232=DIRECTION('',(1.0,0.0,-3.54302775660279E-017));
#233=SURFACE_STYLE_FILL_AREA(#342);
#234=ORIENTED_EDGE('',*,*,#333,.T.);
#235=ORIENTED_EDGE('',*,*,#338,.T.);
#236=ORIENTED_EDGE('',*,*,#330,.F.);
#237=ORIENTED_EDGE('',*,*,#340,.F.);
#238=CARTESIAN_POINT('',(9.5,10.0,10.9696551146));
#239=DIRECTION('',(-0.0,1.0,0.0));
#240=DIRECTION('',(1.0,0.0,0.0));
#241=SURFACE_STYLE_FILL_AREA(#343);
#242=ORIENTED_EDGE('',*,*,#323,.T.);
#243=ORIENTED_EDGE('',*,*,#341,.T.);
#244=ORIENTED_EDGE('',*,*,#325,.T.);
#245=ORIENTED_EDGE('',*,*,#344,.F.);
#246=CARTESIAN_POINT('',(9.5,0.0,10.9696551146));
#247=DIRECTION('',(0.0,1.0,0.0));
#248=DIRECTION('',(1.0,0.0,-3.54302775660279E-017));
#249=SURFACE_STYLE_FILL_AREA(#345);
#250=ORIENTED_EDGE('',*,*,#346,.T.);
#251=ORIENTED_EDGE('',*,*,#347,.F.);
#252=ORIENTED_EDGE('',*,*,#348,.T.);
#253=ORIENTED_EDGE('',*,*,#349,.T.);
#254=CARTESIAN_POINT('',(14.25,0.0,19.19689645055));
#255=DIRECTION('',(0.499999999999901,0.0,0.866025403784496));
#256=DIRECTION('',(0.866025403784496,0.0,-0.499999999999901));
#257=SURFACE_STYLE_FILL_AREA(#350);
#258=ORIENTED_EDGE('',*,*,#351,.T.);
#259=ORIENTED_EDGE('',*,*,#352,.F.);
#260=ORIENTED_EDGE('',*,*,#353,.T.);
#261=ORIENTED_EDGE('',*,*,#347,.T.);
#262=CARTESIAN_POINT('',(4.75,0.0,19.19689645055));
#263=DIRECTION('',(-0.499999999999901,0.0,0.866025403784496));
#264=DIRECTION('',(0.866025403784496,0.0,0.499999999999901));
#265=SURFACE_STYLE_FILL_AREA(#354);
#266=ORIENTED_EDGE('',*,*,#355,.T.);
#267=ORIENTED_EDGE('',*,*,#356,.F.);
#268=ORIENTED_EDGE('',*,*,#357,.T.);
#269=ORIENTED_EDGE('',*,*,#352,.T.);
#270=CARTESIAN_POINT('',(0.0,0.0,10.9696551146));
#271=DIRECTION('',(-1.0,0.0,0.0));
#272=DIRECTION('',(0.0,0.0,1.0));
#273=SURFACE_STYLE_FILL_AREA(#358);
#274=ORIENTED_EDGE('',*,*,#359,.T.);
#275=ORIENTED_EDGE('',*,*,#360,.F.);
#276=ORIENTED_EDGE('',*,*,#361,.T.);
#277=ORIENTED_EDGE('',*,*,#356,.T.);
#278=CARTESIAN_POINT('',(4.75,0.0,2.74241377865));
#279=DIRECTION('',(-0.499999999999901,0.0,-0.866025403784496));
#280=DIRECTION('',(-0.866025403784496,0.0,0.499999999999901));
#281=SURFACE_STYLE_FILL_AREA(#362);
#282=ORIENTED_EDGE('',*,*,#363,.T.);
#283=ORIENTED_EDGE('',*,*,#364,.F.);
#284=ORIENTED_EDGE('',*,*,#365,.T.);
#285=ORIENTED_EDGE('',*,*,#360,.T.);
#286=CARTESIAN_POINT('',(14.25,0.0,2.74241377865));
#287=DIRECTION('',(0.499999999999901,0.0,-0.866025403784496));
#288=DIRECTION('',(-0.866025403784496,0.0,-0.499999999999901));
#289=SURFACE_STYLE_FILL_AREA(#366);
#290=ORIENTED_EDGE('',*,*,#367,.T.);
#291=ORIENTED_EDGE('',*,*,#349,.F.);
#292=ORIENTED_EDGE('',*,*,#368,.T.);
#293=ORIENTED_EDGE('',*,*,#364,.T.);
#294=CARTESIAN_POINT('',(19.0,0.0,10.9696551146));
#295=DIRECTION('',(1.0,0.0,0.0));
#296=DIRECTION('',(0.0,0.0,-1.0));
#297=SURFACE_STYLE_FILL_AREA(#369);
#298=ORIENTED_EDGE('',*,*,#335,.T.);
#299=ORIENTED_EDGE('',*,*,#337,.T.);
#300=ORIENTED_EDGE('',*,*,#368,.F.);
#301=ORIENTED_EDGE('',*,*,#348,.F.);
#302=ORIENTED_EDGE('',*,*,#353,.F.);
#303=ORIENTED_EDGE('',*,*,#357,.F.);
#304=ORIENTED_EDGE('',*,*,#361,.F.);
#305=ORIENTED_EDGE('',*,*,#365,.F.);
#306=CARTESIAN_POINT('',(9.5,0.0,10.9696551146));
#307=DIRECTION('',(-0.0,1.0,0.0));
#308=DIRECTION('',(1.0,0.0,0.0));
#309=SURFACE_STYLE_FILL_AREA(#370);
#310=ORIENTED_EDGE('',*,*,#324,.T.);
#311=ORIENTED_EDGE('',*,*,#344,.T.);
#312=ORIENTED_EDGE('',*,*,#346,.F.);
#313=ORIENTED_EDGE('',*,*,#367,.F.);
#314=ORIENTED_EDGE('',*,*,#363,.F.);
#315=ORIENTED_EDGE('',*,*,#359,.F.);
#316=ORIENTED_EDGE('',*,*,#355,.F.);
#317=ORIENTED_EDGE('',*,*,#351,.F.);
#318=CARTESIAN_POINT('',(9.5,7.1,10.9696551146));
#319=DIRECTION('',(-0.0,1.0,0.0));
#320=DIRECTION('',(1.0,0.0,0.0));
#321=SURFACE_STYLE_FILL_AREA(#371);
#322=FILL_AREA_STYLE('',(#372));
#323=EDGE_CURVE('',#373,#374,#375,.T.);
#324=EDGE_CURVE('',#376,#373,#377,.T.);
#325=EDGE_CURVE('',#378,#376,#379,.T.);
#326=EDGE_CURVE('',#378,#374,#380,.T.);
#327=FILL_AREA_STYLE('',(#381));
#328=EDGE_CURVE('',#374,#382,#383,.T.);
#329=EDGE_CURVE('',#384,#378,#385,.T.);
#330=EDGE_CURVE('',#384,#382,#386,.T.);
#331=FILL_AREA_STYLE('',(#387));
#332=EDGE_CURVE('',#388,#389,#390,.T.);
#333=EDGE_CURVE('',#391,#388,#392,.T.);
#334=EDGE_CURVE('',#393,#391,#394,.T.);
#335=EDGE_CURVE('',#389,#393,#395,.T.);
#336=FILL_AREA_STYLE('',(#396));
#337=EDGE_CURVE('',#393,#389,#397,.T.);
#338=EDGE_CURVE('',#388,#391,#398,.T.);
#339=FILL_AREA_STYLE('',(#399));
#340=EDGE_CURVE('',#382,#384,#400,.T.);
#341=EDGE_CURVE('',#374,#378,#401,.T.);
#342=FILL_AREA_STYLE('',(#402));
#343=FILL_AREA_STYLE('',(#403));
#344=EDGE_CURVE('',#373,#376,#404,.T.);
#345=FILL_AREA_STYLE('',(#405));
#346=EDGE_CURVE('',#406,#407,#408,.T.);
#347=EDGE_CURVE('',#409,#407,#410,.T.);
#348=EDGE_CURVE('',#409,#411,#412,.T.);
#349=EDGE_CURVE('',#411,#406,#413,.T.);
#350=FILL_AREA_STYLE('',(#414));
#351=EDGE_CURVE('',#407,#415,#416,.T.);
#352=EDGE_CURVE('',#417,#415,#418,.T.);
#353=EDGE_CURVE('',#417,#409,#419,.T.);
#354=FILL_AREA_STYLE('',(#420));
#355=EDGE_CURVE('',#415,#421,#422,.T.);
#356=EDGE_CURVE('',#423,#421,#424,.T.);
#357=EDGE_CURVE('',#423,#417,#425,.T.);
#358=FILL_AREA_STYLE('',(#426));
#359=EDGE_CURVE('',#421,#427,#428,.T.);
#360=EDGE_CURVE('',#429,#427,#430,.T.);
#361=EDGE_CURVE('',#429,#423,#431,.T.);
#362=FILL_AREA_STYLE('',(#432));
#363=EDGE_CURVE('',#427,#433,#434,.T.);
#364=EDGE_CURVE('',#435,#433,#436,.T.);
#365=EDGE_CURVE('',#435,#429,#437,.T.);
#366=FILL_AREA_STYLE('',(#438));
#367=EDGE_CURVE('',#433,#406,#439,.T.);
#368=EDGE_CURVE('',#411,#435,#440,.T.);
#369=FILL_AREA_STYLE('',(#441));
#370=FILL_AREA_STYLE('',(#442));
#371=FILL_AREA_STYLE('',(#443));
#372=FILL_AREA_STYLE_COLOUR('',#444);
#373=VERTEX_POINT('',#445);
#374=VERTEX_POINT('',#446);
#375=LINE('',#447,#448);
#376=VERTEX_POINT('',#449);
#377=CIRCLE('',#450,7.425);
#378=VERTEX_POINT('',#451);
#379=LINE('',#452,#453);
#380=CIRCLE('',#454,7.425);
#381=FILL_AREA_STYLE_COLOUR('',#455);
#382=VERTEX_POINT('',#456);
#383=LINE('',#457,#458);
#384=VERTEX_POINT('',#459);
#385=LINE('',#460,#461);
#386=CIRCLE('',#462,7.20627834118519);
#387=FILL_AREA_STYLE_COLOUR('',#463);
#388=VERTEX_POINT('',#464);
#389=VERTEX_POINT('',#465);
#390=LINE('',#466,#467);
#391=VERTEX_POINT('',#468);
#392=CIRCLE('',#469,6.0);
#393=VERTEX_POINT('',#470);
#394=LINE('',#471,#472);
#395=CIRCLE('',#473,6.0);
#396=FILL_AREA_STYLE_COLOUR('',#474);
#397=CIRCLE('',#475,6.0);
#398=CIRCLE('',#476,6.0);
#399=FILL_AREA_STYLE_COLOUR('',#477);
#400=CIRCLE('',#478,7.20627834118519);
#401=CIRCLE('',#479,7.425);
#402=FILL_AREA_STYLE_COLOUR('',#480);
#403=FILL_AREA_STYLE_COLOUR('',#481);
#404=CIRCLE('',#482,7.425);
#405=FILL_AREA_STYLE_COLOUR('',#483);
#406=VERTEX_POINT('',#484);
#407=VERTEX_POINT('',#485);
#408=LINE('',#486,#487);
#409=VERTEX_POINT('',#488);
#410=LINE('',#489,#490);
#411=VERTEX_POINT('',#491);
#412=LINE('',#492,#493);
#413=LINE('',#494,#495);
#414=FILL_AREA_STYLE_COLOUR('',#496);
#415=VERTEX_POINT('',#497);
#416=LINE('',#498,#499);
#417=VERTEX_POINT('',#500);
#418=LINE('',#501,#502);
#419=LINE('',#503,#504);
#420=FILL_AREA_STYLE_COLOUR('',#505);
#421=VERTEX_POINT('',#506);
#422=LINE('',#507,#508);
#423=VERTEX_POINT('',#509);
#424=LINE('',#510,#511);
#425=LINE('',#512,#513);
#426=FILL_AREA_STYLE_COLOUR('',#514);
#427=VERTEX_POINT('',#515);
#428=LINE('',#516,#517);
#429=VERTEX_POINT('',#518);
#430=LINE('',#519,#520);
#431=LINE('',#521,#522);
#432=FILL_AREA_STYLE_COLOUR('',#523);
#433=VERTEX_POINT('',#524);
#434=LINE('',#525,#526);
#435=VERTEX_POINT('',#527);
#436=LINE('',#528,#529);
#437=LINE('',#530,#531);
#438=FILL_AREA_STYLE_COLOUR('',#532);
#439=LINE('',#533,#534);
#440=LINE('',#535,#536);
#441=FILL_AREA_STYLE_COLOUR('',#537);
#442=FILL_AREA_STYLE_COLOUR('',#538);
#443=FILL_AREA_STYLE_COLOUR('',#539);
#444=COLOUR_RGB('',0.901960790157318,0.909803926944733,0.980392158031464);
#445=CARTESIAN_POINT('',(16.925,7.1,10.9696551146));
#446=CARTESIAN_POINT('',(16.925,7.5,10.9696551146));
#447=CARTESIAN_POINT('',(16.925,7.3,10.9696551146));
#448=VECTOR('',#540,1.0);
#449=CARTESIAN_POINT('',(2.075,7.1,10.9696551146));
#450=AXIS2_PLACEMENT_3D('',#541,#542,#543);
#451=CARTESIAN_POINT('',(2.075,7.5,10.9696551146));
#452=CARTESIAN_POINT('',(2.075,7.3,10.9696551146));
#453=VECTOR('',#544,1.0);
#454=AXIS2_PLACEMENT_3D('',#545,#546,#547);
#455=COLOUR_RGB('',0.901960790157318,0.909803926944733,0.980392158031464);
#456=CARTESIAN_POINT('',(16.7062783411852,10.0,10.9696551146));
#457=CARTESIAN_POINT('',(16.925,7.5,10.9696551146));
#458=VECTOR('',#548,1.0);
#459=CARTESIAN_POINT('',(2.29372165881481,10.0,10.9696551146));
#460=CARTESIAN_POINT('',(2.075,7.5,10.9696551146));
#461=VECTOR('',#549,1.0);
#462=AXIS2_PLACEMENT_3D('',#550,#551,#552);
#463=COLOUR_RGB('',0.901960790157318,0.909803926944733,0.980392158031464);
#464=CARTESIAN_POINT('',(15.5,10.0,10.9696551146));
#465=CARTESIAN_POINT('',(15.5,0.0,10.9696551146));
#466=CARTESIAN_POINT('',(15.5,0.0,10.9696551146));
#467=VECTOR('',#553,1.0);
#468=CARTESIAN_POINT('',(3.5,10.0,10.9696551146));
#469=AXIS2_PLACEMENT_3D('',#554,#555,#556);
#470=CARTESIAN_POINT('',(3.5,0.0,10.9696551146));
#471=CARTESIAN_POINT('',(3.5,0.0,10.9696551146));
#472=VECTOR('',#557,1.0);
#473=AXIS2_PLACEMENT_3D('',#558,#559,#560);
#474=COLOUR_RGB('',0.901960790157318,0.909803926944733,0.980392158031464);
#475=AXIS2_PLACEMENT_3D('',#561,#562,#563);
#476=AXIS2_PLACEMENT_3D('',#564,#565,#566);
#477=COLOUR_RGB('',0.901960790157318,0.909803926944733,0.980392158031464);
#478=AXIS2_PLACEMENT_3D('',#567,#568,#569);
#479=AXIS2_PLACEMENT_3D('',#570,#571,#572);
#480=COLOUR_RGB('',0.901960790157318,0.909803926944733,0.980392158031464);
#481=COLOUR_RGB('',0.901960790157318,0.909803926944733,0.980392158031464);
#482=AXIS2_PLACEMENT_3D('',#573,#574,#575);
#483=COLOUR_RGB('',0.901960790157318,0.909803926944733,0.980392158031464);
#484=CARTESIAN_POINT('',(19.0,7.1,16.4544826719));
#485=CARTESIAN_POINT('',(9.5,7.1,21.9393102292));
#486=CARTESIAN_POINT('',(9.5,7.1,21.9393102292));
#487=VECTOR('',#576,1.0);
#488=CARTESIAN_POINT('',(9.5,0.0,21.9393102292));
#489=CARTESIAN_POINT('',(9.5,0.0,21.9393102292));
#490=VECTOR('',#577,1.0);
#491=CARTESIAN_POINT('',(19.0,0.0,16.4544826719));
#492=CARTESIAN_POINT('',(9.5,0.0,21.9393102292));
#493=VECTOR('',#578,1.0);
#494=CARTESIAN_POINT('',(19.0,0.0,16.4544826719));
#495=VECTOR('',#579,1.0);
#496=COLOUR_RGB('',0.901960790157318,0.909803926944733,0.980392158031464);
#497=CARTESIAN_POINT('',(0.0,7.1,16.4544826719));
#498=CARTESIAN_POINT('',(0.0,7.1,16.4544826719));
#499=VECTOR('',#580,1.0);
#500=CARTESIAN_POINT('',(0.0,0.0,16.4544826719));
#501=CARTESIAN_POINT('',(0.0,0.0,16.4544826719));
#502=VECTOR('',#581,1.0);
#503=CARTESIAN_POINT('',(0.0,0.0,16.4544826719));
#504=VECTOR('',#582,1.0);
#505=COLOUR_RGB('',0.901960790157318,0.909803926944733,0.980392158031464);
#506=CARTESIAN_POINT('',(0.0,7.1,5.4848275573));
#507=CARTESIAN_POINT('',(0.0,7.1,5.4848275573));
#508=VECTOR('',#583,1.0);
#509=CARTESIAN_POINT('',(0.0,0.0,5.4848275573));
#510=CARTESIAN_POINT('',(0.0,0.0,5.4848275573));
#511=VECTOR('',#584,1.0);
#512=CARTESIAN_POINT('',(0.0,0.0,5.4848275573));
#513=VECTOR('',#585,1.0);
#514=COLOUR_RGB('',0.901960790157318,0.909803926944733,0.980392158031464);
#515=CARTESIAN_POINT('',(9.5,7.1,0.0));
#516=CARTESIAN_POINT('',(9.5,7.1,0.0));
#517=VECTOR('',#586,1.0);
#518=CARTESIAN_POINT('',(9.5,0.0,0.0));
#519=CARTESIAN_POINT('',(9.5,0.0,0.0));
#520=VECTOR('',#587,1.0);
#521=CARTESIAN_POINT('',(9.5,0.0,0.0));
#522=VECTOR('',#588,1.0);
#523=COLOUR_RGB('',0.901960790157318,0.909803926944733,0.980392158031464);
#524=CARTESIAN_POINT('',(19.0,7.1,5.4848275573));
#525=CARTESIAN_POINT('',(19.0,7.1,5.4848275573));
#526=VECTOR('',#589,1.0);
#527=CARTESIAN_POINT('',(19.0,0.0,5.4848275573));
#528=CARTESIAN_POINT('',(19.0,0.0,5.4848275573));
#529=VECTOR('',#590,1.0);
#530=CARTESIAN_POINT('',(19.0,0.0,5.4848275573));
#531=VECTOR('',#591,1.0);
#532=COLOUR_RGB('',0.901960790157318,0.909803926944733,0.980392158031464);
#533=CARTESIAN_POINT('',(19.0,7.1,16.4544826719));
#534=VECTOR('',#592,1.0);
#535=CARTESIAN_POINT('',(19.0,0.0,16.4544826719));
#536=VECTOR('',#593,1.0);
#537=COLOUR_RGB('',0.901960790157318,0.909803926944733,0.980392158031464);
#538=COLOUR_RGB('',0.901960790157318,0.909803926944733,0.980392158031464);
#539=COLOUR_RGB('',0.901960790157318,0.909803926944733,0.980392158031464);
#540=DIRECTION('',(0.0,1.0,0.0));
#541=CARTESIAN_POINT('',(9.5,7.1,10.9696551146));
#542=DIRECTION('',(0.0,-1.0,-0.0));
#543=DIRECTION('',(1.0,0.0,-3.54302775660279E-017));
#544=DIRECTION('',(-0.0,-1.0,-0.0));
#545=CARTESIAN_POINT('',(9.5,7.5,10.9696551146));
#546=DIRECTION('',(0.0,-1.0,0.0));
#547=DIRECTION('',(1.0,0.0,-3.54302775660279E-017));
#548=DIRECTION('',(-0.0871557427476582,0.996194698091746,0.0));
#549=DIRECTION('',(-0.0871557427476583,-0.996194698091746,-0.0));
#550=CARTESIAN_POINT('',(9.5,10.0,10.9696551146));
#551=DIRECTION('',(0.0,-1.0,0.0));
#552=DIRECTION('',(1.0,0.0,-3.54302775660279E-017));
#553=DIRECTION('',(-0.0,-1.0,-0.0));
#554=CARTESIAN_POINT('',(9.5,10.0,10.9696551146));
#555=DIRECTION('',(0.0,-1.0,0.0));
#556=DIRECTION('',(1.0,0.0,4.31306681499087E-016));
#557=DIRECTION('',(-0.0,1.0,-0.0));
#558=CARTESIAN_POINT('',(9.5,0.0,10.9696551146));
#559=DIRECTION('',(-0.0,1.0,0.0));
#560=DIRECTION('',(1.0,0.0,4.31306681499087E-016));
#561=CARTESIAN_POINT('',(9.5,0.0,10.9696551146));
#562=DIRECTION('',(-0.0,1.0,0.0));
#563=DIRECTION('',(1.0,0.0,4.31306681499087E-016));
#564=CARTESIAN_POINT('',(9.5,10.0,10.9696551146));
#565=DIRECTION('',(0.0,-1.0,0.0));
#566=DIRECTION('',(1.0,0.0,4.31306681499087E-016));
#567=CARTESIAN_POINT('',(9.5,10.0,10.9696551146));
#568=DIRECTION('',(0.0,-1.0,0.0));
#569=DIRECTION('',(1.0,0.0,-3.54302775660279E-017));
#570=CARTESIAN_POINT('',(9.5,7.5,10.9696551146));
#571=DIRECTION('',(0.0,-1.0,0.0));
#572=DIRECTION('',(1.0,0.0,-3.54302775660279E-017));
#573=CARTESIAN_POINT('',(9.5,7.1,10.9696551146));
#574=DIRECTION('',(0.0,-1.0,-0.0));
#575=DIRECTION('',(1.0,0.0,-3.54302775660279E-017));
#576=DIRECTION('',(-0.866025403784496,-0.0,0.499999999999901));
#577=DIRECTION('',(0.0,1.0,0.0));
#578=DIRECTION('',(0.866025403784496,0.0,-0.499999999999901));
#579=DIRECTION('',(0.0,1.0,0.0));
#580=DIRECTION('',(-0.866025403784496,0.0,-0.499999999999901));
#581=DIRECTION('',(0.0,1.0,0.0));
#582=DIRECTION('',(0.866025403784496,0.0,0.499999999999901));
#583=DIRECTION('',(0.0,0.0,-1.0));
#584=DIRECTION('',(0.0,1.0,0.0));
#585=DIRECTION('',(0.0,0.0,1.0));
#586=DIRECTION('',(0.866025403784496,0.0,-0.499999999999901));
#587=DIRECTION('',(0.0,1.0,0.0));
#588=DIRECTION('',(-0.866025403784496,0.0,0.499999999999901));
#589=DIRECTION('',(0.866025403784496,0.0,0.499999999999901));
#590=DIRECTION('',(0.0,1.0,0.0));
#591=DIRECTION('',(-0.866025403784496,0.0,-0.499999999999901));
#592=DIRECTION('',(0.0,-0.0,1.0));
#593=DIRECTION('',(0.0,0.0,-1.0));
ENDSEC;
END-ISO-10303-21;
