ISO-10303-21;
HEADER;
/* Generated by software containing ST-Developer
 * from STEP Tools, Inc. (www.steptools.com) 
 */
/* OPTION: using custom schema-name function */

FILE_DESCRIPTION(
/* description */ (''),
/* implementation_level */ '2;1');

FILE_NAME(
/* name */ '5SE2316_3D_v_1.stp',
/* time_stamp */ '2024-05-02T10:19:01+02:00',
/* author */ (''),
/* organization */ (''),
/* preprocessor_version */ 'ST-DEVELOPER v18.101',
/* originating_system */ 'SIEMENS PLM Software NX 2008',
/* authorisation */ '');

FILE_SCHEMA (('AUTOMOTIVE_DESIGN { 1 0 10303 214 3 1 1 1 }'));
ENDSEC;

DATA;
#10=SHAPE_REPRESENTATION_RELATIONSHIP('None',
'relationship between 5SE2316_3D_v-None and 5SE2316_3D_v-None',#22,#11);
#11=ADVANCED_BREP_SHAPE_REPRESENTATION('5SE2316_3D_v-None',(#161),#514);
#12=SHAPE_DEFINITION_REPRESENTATION(#13,#22);
#13=PRODUCT_DEFINITION_SHAPE('','',#14);
#14=PRODUCT_DEFINITION(' ','',#16,#15);
#15=PRODUCT_DEFINITION_CONTEXT('part definition',#21,'design');
#16=PRODUCT_DEFINITION_FORMATION_WITH_SPECIFIED_SOURCE(' ',' ',#18,
 .NOT_KNOWN.);
#17=PRODUCT_RELATED_PRODUCT_CATEGORY('part','',(#18));
#18=PRODUCT('5SE2316_3D_v','5SE2316_3D_v',' ',(#19));
#19=PRODUCT_CONTEXT(' ',#21,'mechanical');
#20=APPLICATION_PROTOCOL_DEFINITION('international standard',
'automotive_design',2010,#21);
#21=APPLICATION_CONTEXT(
'core data for automotive mechanical design processes');
#22=SHAPE_REPRESENTATION('5SE2316_3D_v-None',(#352),#514);
#23=DRAUGHTING_PRE_DEFINED_COLOUR('white');
#24=OVER_RIDING_STYLED_ITEM('',(#45),#209,#43);
#25=OVER_RIDING_STYLED_ITEM('',(#46),#210,#43);
#26=OVER_RIDING_STYLED_ITEM('',(#47),#211,#43);
#27=OVER_RIDING_STYLED_ITEM('',(#48),#212,#43);
#28=OVER_RIDING_STYLED_ITEM('',(#49),#213,#43);
#29=OVER_RIDING_STYLED_ITEM('',(#50),#214,#43);
#30=OVER_RIDING_STYLED_ITEM('',(#51),#215,#43);
#31=OVER_RIDING_STYLED_ITEM('',(#52),#216,#43);
#32=OVER_RIDING_STYLED_ITEM('',(#53),#217,#43);
#33=OVER_RIDING_STYLED_ITEM('',(#54),#218,#43);
#34=OVER_RIDING_STYLED_ITEM('',(#55),#219,#43);
#35=OVER_RIDING_STYLED_ITEM('',(#56),#220,#43);
#36=OVER_RIDING_STYLED_ITEM('',(#57),#221,#43);
#37=OVER_RIDING_STYLED_ITEM('',(#58),#222,#43);
#38=OVER_RIDING_STYLED_ITEM('',(#59),#223,#43);
#39=OVER_RIDING_STYLED_ITEM('',(#60),#224,#43);
#40=OVER_RIDING_STYLED_ITEM('',(#61),#225,#43);
#41=OVER_RIDING_STYLED_ITEM('',(#62),#226,#43);
#42=PRESENTATION_LAYER_ASSIGNMENT('1','Layer 1',(#161));
#43=STYLED_ITEM('',(#44),#161);
#44=PRESENTATION_STYLE_ASSIGNMENT((#63));
#45=PRESENTATION_STYLE_ASSIGNMENT((#64));
#46=PRESENTATION_STYLE_ASSIGNMENT((#65));
#47=PRESENTATION_STYLE_ASSIGNMENT((#66));
#48=PRESENTATION_STYLE_ASSIGNMENT((#67));
#49=PRESENTATION_STYLE_ASSIGNMENT((#68));
#50=PRESENTATION_STYLE_ASSIGNMENT((#69));
#51=PRESENTATION_STYLE_ASSIGNMENT((#70));
#52=PRESENTATION_STYLE_ASSIGNMENT((#71));
#53=PRESENTATION_STYLE_ASSIGNMENT((#72));
#54=PRESENTATION_STYLE_ASSIGNMENT((#73));
#55=PRESENTATION_STYLE_ASSIGNMENT((#74));
#56=PRESENTATION_STYLE_ASSIGNMENT((#75));
#57=PRESENTATION_STYLE_ASSIGNMENT((#76));
#58=PRESENTATION_STYLE_ASSIGNMENT((#77));
#59=PRESENTATION_STYLE_ASSIGNMENT((#78));
#60=PRESENTATION_STYLE_ASSIGNMENT((#79));
#61=PRESENTATION_STYLE_ASSIGNMENT((#80));
#62=PRESENTATION_STYLE_ASSIGNMENT((#81));
#63=SURFACE_STYLE_USAGE(.BOTH.,#82);
#64=SURFACE_STYLE_USAGE(.BOTH.,#83);
#65=SURFACE_STYLE_USAGE(.BOTH.,#84);
#66=SURFACE_STYLE_USAGE(.BOTH.,#85);
#67=SURFACE_STYLE_USAGE(.BOTH.,#86);
#68=SURFACE_STYLE_USAGE(.BOTH.,#87);
#69=SURFACE_STYLE_USAGE(.BOTH.,#88);
#70=SURFACE_STYLE_USAGE(.BOTH.,#89);
#71=SURFACE_STYLE_USAGE(.BOTH.,#90);
#72=SURFACE_STYLE_USAGE(.BOTH.,#91);
#73=SURFACE_STYLE_USAGE(.BOTH.,#92);
#74=SURFACE_STYLE_USAGE(.BOTH.,#93);
#75=SURFACE_STYLE_USAGE(.BOTH.,#94);
#76=SURFACE_STYLE_USAGE(.BOTH.,#95);
#77=SURFACE_STYLE_USAGE(.BOTH.,#96);
#78=SURFACE_STYLE_USAGE(.BOTH.,#97);
#79=SURFACE_STYLE_USAGE(.BOTH.,#98);
#80=SURFACE_STYLE_USAGE(.BOTH.,#99);
#81=SURFACE_STYLE_USAGE(.BOTH.,#100);
#82=SURFACE_SIDE_STYLE('',(#101));
#83=SURFACE_SIDE_STYLE('',(#102));
#84=SURFACE_SIDE_STYLE('',(#103));
#85=SURFACE_SIDE_STYLE('',(#104));
#86=SURFACE_SIDE_STYLE('',(#105));
#87=SURFACE_SIDE_STYLE('',(#106));
#88=SURFACE_SIDE_STYLE('',(#107));
#89=SURFACE_SIDE_STYLE('',(#108));
#90=SURFACE_SIDE_STYLE('',(#109));
#91=SURFACE_SIDE_STYLE('',(#110));
#92=SURFACE_SIDE_STYLE('',(#111));
#93=SURFACE_SIDE_STYLE('',(#112));
#94=SURFACE_SIDE_STYLE('',(#113));
#95=SURFACE_SIDE_STYLE('',(#114));
#96=SURFACE_SIDE_STYLE('',(#115));
#97=SURFACE_SIDE_STYLE('',(#116));
#98=SURFACE_SIDE_STYLE('',(#117));
#99=SURFACE_SIDE_STYLE('',(#118));
#100=SURFACE_SIDE_STYLE('',(#119));
#101=SURFACE_STYLE_FILL_AREA(#120);
#102=SURFACE_STYLE_FILL_AREA(#121);
#103=SURFACE_STYLE_FILL_AREA(#122);
#104=SURFACE_STYLE_FILL_AREA(#123);
#105=SURFACE_STYLE_FILL_AREA(#124);
#106=SURFACE_STYLE_FILL_AREA(#125);
#107=SURFACE_STYLE_FILL_AREA(#126);
#108=SURFACE_STYLE_FILL_AREA(#127);
#109=SURFACE_STYLE_FILL_AREA(#128);
#110=SURFACE_STYLE_FILL_AREA(#129);
#111=SURFACE_STYLE_FILL_AREA(#130);
#112=SURFACE_STYLE_FILL_AREA(#131);
#113=SURFACE_STYLE_FILL_AREA(#132);
#114=SURFACE_STYLE_FILL_AREA(#133);
#115=SURFACE_STYLE_FILL_AREA(#134);
#116=SURFACE_STYLE_FILL_AREA(#135);
#117=SURFACE_STYLE_FILL_AREA(#136);
#118=SURFACE_STYLE_FILL_AREA(#137);
#119=SURFACE_STYLE_FILL_AREA(#138);
#120=FILL_AREA_STYLE('',(#139));
#121=FILL_AREA_STYLE('',(#140));
#122=FILL_AREA_STYLE('',(#141));
#123=FILL_AREA_STYLE('',(#142));
#124=FILL_AREA_STYLE('',(#143));
#125=FILL_AREA_STYLE('',(#144));
#126=FILL_AREA_STYLE('',(#145));
#127=FILL_AREA_STYLE('',(#146));
#128=FILL_AREA_STYLE('',(#147));
#129=FILL_AREA_STYLE('',(#148));
#130=FILL_AREA_STYLE('',(#149));
#131=FILL_AREA_STYLE('',(#150));
#132=FILL_AREA_STYLE('',(#151));
#133=FILL_AREA_STYLE('',(#152));
#134=FILL_AREA_STYLE('',(#153));
#135=FILL_AREA_STYLE('',(#154));
#136=FILL_AREA_STYLE('',(#155));
#137=FILL_AREA_STYLE('',(#156));
#138=FILL_AREA_STYLE('',(#157));
#139=FILL_AREA_STYLE_COLOUR('',#158);
#140=FILL_AREA_STYLE_COLOUR('',#159);
#141=FILL_AREA_STYLE_COLOUR('',#159);
#142=FILL_AREA_STYLE_COLOUR('',#159);
#143=FILL_AREA_STYLE_COLOUR('',#23);
#144=FILL_AREA_STYLE_COLOUR('',#23);
#145=FILL_AREA_STYLE_COLOUR('',#159);
#146=FILL_AREA_STYLE_COLOUR('',#159);
#147=FILL_AREA_STYLE_COLOUR('',#159);
#148=FILL_AREA_STYLE_COLOUR('',#159);
#149=FILL_AREA_STYLE_COLOUR('',#23);
#150=FILL_AREA_STYLE_COLOUR('',#23);
#151=FILL_AREA_STYLE_COLOUR('',#23);
#152=FILL_AREA_STYLE_COLOUR('',#160);
#153=FILL_AREA_STYLE_COLOUR('',#159);
#154=FILL_AREA_STYLE_COLOUR('',#159);
#155=FILL_AREA_STYLE_COLOUR('',#159);
#156=FILL_AREA_STYLE_COLOUR('',#159);
#157=FILL_AREA_STYLE_COLOUR('',#159);
#158=COLOUR_RGB('Medium Steel',0.611764705882353,0.658823529411765,0.670588235294118);
#159=COLOUR_RGB('ash gray',0.874509803921569,0.874509803921569,0.874509803921569);
#160=COLOUR_RGB('light gray',0.8,0.8,0.8);
#161=MANIFOLD_SOLID_BREP('',#162);
#162=CLOSED_SHELL('',(#209,#210,#211,#212,#213,#214,#215,#216,#217,#218,
#219,#220,#221,#222,#223,#224,#225,#226));
#163=TOROIDAL_SURFACE('',#377,4.74999999999999,0.75);
#164=TOROIDAL_SURFACE('',#379,4.74999999999999,0.75);
#165=TOROIDAL_SURFACE('',#380,5.0913019033629,0.3);
#166=TOROIDAL_SURFACE('',#381,4.55000000000003,0.3);
#167=TOROIDAL_SURFACE('',#382,4.55000000000003,0.3);
#168=TOROIDAL_SURFACE('',#383,2.70000000000002,0.3);
#169=TOROIDAL_SURFACE('',#384,4.15000000000001,0.75);
#170=TOROIDAL_SURFACE('',#386,1.74999999999997,0.25);
#171=TOROIDAL_SURFACE('',#387,1.24999999999997,0.25);
#172=CONICAL_SURFACE('',#366,4.79999999999998,2.08256527973099);
#173=CYLINDRICAL_SURFACE('',#360,4.90000000000001);
#174=CYLINDRICAL_SURFACE('',#363,5.49999999999999);
#175=CYLINDRICAL_SURFACE('',#369,4.85000000000003);
#176=CYLINDRICAL_SURFACE('',#374,3.00000000000002);
#177=FACE_BOUND('',#234,.T.);
#178=FACE_BOUND('',#235,.T.);
#179=FACE_BOUND('',#236,.T.);
#180=FACE_BOUND('',#237,.T.);
#181=FACE_BOUND('',#238,.T.);
#182=FACE_BOUND('',#239,.T.);
#183=FACE_BOUND('',#240,.T.);
#184=FACE_BOUND('',#241,.T.);
#185=FACE_BOUND('',#242,.T.);
#186=FACE_BOUND('',#243,.T.);
#187=FACE_BOUND('',#244,.T.);
#188=FACE_BOUND('',#245,.T.);
#189=FACE_BOUND('',#246,.T.);
#190=FACE_BOUND('',#247,.T.);
#191=FACE_BOUND('',#249,.T.);
#192=FACE_BOUND('',#250,.T.);
#193=FACE_BOUND('',#251,.T.);
#194=FACE_BOUND('',#252,.T.);
#195=FACE_BOUND('',#253,.T.);
#196=FACE_BOUND('',#254,.T.);
#197=FACE_BOUND('',#255,.T.);
#198=FACE_BOUND('',#256,.T.);
#199=FACE_BOUND('',#257,.T.);
#200=FACE_BOUND('',#258,.T.);
#201=FACE_BOUND('',#259,.T.);
#202=FACE_BOUND('',#260,.T.);
#203=FACE_BOUND('',#261,.T.);
#204=FACE_BOUND('',#262,.T.);
#205=FACE_BOUND('',#263,.T.);
#206=FACE_BOUND('',#264,.T.);
#207=FACE_BOUND('',#265,.T.);
#208=FACE_BOUND('',#266,.T.);
#209=ADVANCED_FACE('',(#231),#227,.T.);
#210=ADVANCED_FACE('',(#177,#178),#228,.T.);
#211=ADVANCED_FACE('',(#179,#180),#173,.T.);
#212=ADVANCED_FACE('',(#181,#182),#174,.T.);
#213=ADVANCED_FACE('',(#183,#184),#172,.T.);
#214=ADVANCED_FACE('',(#185,#186),#175,.T.);
#215=ADVANCED_FACE('',(#187,#188),#229,.T.);
#216=ADVANCED_FACE('',(#189,#190),#176,.T.);
#217=ADVANCED_FACE('',(#232),#230,.T.);
#218=ADVANCED_FACE('',(#191,#192),#163,.T.);
#219=ADVANCED_FACE('',(#193,#194),#164,.T.);
#220=ADVANCED_FACE('',(#195,#196),#165,.F.);
#221=ADVANCED_FACE('',(#197,#198),#166,.T.);
#222=ADVANCED_FACE('',(#199,#200),#167,.T.);
#223=ADVANCED_FACE('',(#201,#202),#168,.T.);
#224=ADVANCED_FACE('',(#203,#204),#169,.T.);
#225=ADVANCED_FACE('',(#205,#206),#170,.T.);
#226=ADVANCED_FACE('',(#207,#208),#171,.F.);
#227=PLANE('',#354);
#228=PLANE('',#357);
#229=PLANE('',#372);
#230=PLANE('',#376);
#231=FACE_OUTER_BOUND('',#233,.T.);
#232=FACE_OUTER_BOUND('',#248,.T.);
#233=EDGE_LOOP('',(#267));
#234=EDGE_LOOP('',(#268));
#235=EDGE_LOOP('',(#269));
#236=EDGE_LOOP('',(#270));
#237=EDGE_LOOP('',(#271));
#238=EDGE_LOOP('',(#272));
#239=EDGE_LOOP('',(#273));
#240=EDGE_LOOP('',(#274));
#241=EDGE_LOOP('',(#275));
#242=EDGE_LOOP('',(#276));
#243=EDGE_LOOP('',(#277));
#244=EDGE_LOOP('',(#278));
#245=EDGE_LOOP('',(#279));
#246=EDGE_LOOP('',(#280));
#247=EDGE_LOOP('',(#281));
#248=EDGE_LOOP('',(#282));
#249=EDGE_LOOP('',(#283));
#250=EDGE_LOOP('',(#284));
#251=EDGE_LOOP('',(#285));
#252=EDGE_LOOP('',(#286));
#253=EDGE_LOOP('',(#287));
#254=EDGE_LOOP('',(#288));
#255=EDGE_LOOP('',(#289));
#256=EDGE_LOOP('',(#290));
#257=EDGE_LOOP('',(#291));
#258=EDGE_LOOP('',(#292));
#259=EDGE_LOOP('',(#293));
#260=EDGE_LOOP('',(#294));
#261=EDGE_LOOP('',(#295));
#262=EDGE_LOOP('',(#296));
#263=EDGE_LOOP('',(#297));
#264=EDGE_LOOP('',(#298));
#265=EDGE_LOOP('',(#299));
#266=EDGE_LOOP('',(#300));
#267=ORIENTED_EDGE('',*,*,#318,.T.);
#268=ORIENTED_EDGE('',*,*,#319,.T.);
#269=ORIENTED_EDGE('',*,*,#320,.T.);
#270=ORIENTED_EDGE('',*,*,#321,.T.);
#271=ORIENTED_EDGE('',*,*,#322,.T.);
#272=ORIENTED_EDGE('',*,*,#323,.T.);
#273=ORIENTED_EDGE('',*,*,#324,.T.);
#274=ORIENTED_EDGE('',*,*,#325,.T.);
#275=ORIENTED_EDGE('',*,*,#326,.T.);
#276=ORIENTED_EDGE('',*,*,#327,.T.);
#277=ORIENTED_EDGE('',*,*,#328,.T.);
#278=ORIENTED_EDGE('',*,*,#329,.T.);
#279=ORIENTED_EDGE('',*,*,#330,.T.);
#280=ORIENTED_EDGE('',*,*,#331,.T.);
#281=ORIENTED_EDGE('',*,*,#330,.F.);
#282=ORIENTED_EDGE('',*,*,#332,.T.);
#283=ORIENTED_EDGE('',*,*,#323,.F.);
#284=ORIENTED_EDGE('',*,*,#322,.F.);
#285=ORIENTED_EDGE('',*,*,#333,.T.);
#286=ORIENTED_EDGE('',*,*,#324,.F.);
#287=ORIENTED_EDGE('',*,*,#325,.F.);
#288=ORIENTED_EDGE('',*,*,#333,.F.);
#289=ORIENTED_EDGE('',*,*,#327,.F.);
#290=ORIENTED_EDGE('',*,*,#326,.F.);
#291=ORIENTED_EDGE('',*,*,#329,.F.);
#292=ORIENTED_EDGE('',*,*,#328,.F.);
#293=ORIENTED_EDGE('',*,*,#332,.F.);
#294=ORIENTED_EDGE('',*,*,#331,.F.);
#295=ORIENTED_EDGE('',*,*,#321,.F.);
#296=ORIENTED_EDGE('',*,*,#320,.F.);
#297=ORIENTED_EDGE('',*,*,#319,.F.);
#298=ORIENTED_EDGE('',*,*,#334,.F.);
#299=ORIENTED_EDGE('',*,*,#334,.T.);
#300=ORIENTED_EDGE('',*,*,#318,.F.);
#301=VERTEX_POINT('',#462);
#302=VERTEX_POINT('',#465);
#303=VERTEX_POINT('',#467);
#304=VERTEX_POINT('',#470);
#305=VERTEX_POINT('',#472);
#306=VERTEX_POINT('',#475);
#307=VERTEX_POINT('',#477);
#308=VERTEX_POINT('',#480);
#309=VERTEX_POINT('',#482);
#310=VERTEX_POINT('',#485);
#311=VERTEX_POINT('',#487);
#312=VERTEX_POINT('',#490);
#313=VERTEX_POINT('',#492);
#314=VERTEX_POINT('',#495);
#315=VERTEX_POINT('',#498);
#316=VERTEX_POINT('',#502);
#317=VERTEX_POINT('',#510);
#318=EDGE_CURVE('',#301,#301,#335,.T.);
#319=EDGE_CURVE('',#302,#302,#336,.T.);
#320=EDGE_CURVE('',#303,#303,#337,.T.);
#321=EDGE_CURVE('',#304,#304,#338,.T.);
#322=EDGE_CURVE('',#305,#305,#339,.T.);
#323=EDGE_CURVE('',#306,#306,#340,.T.);
#324=EDGE_CURVE('',#307,#307,#341,.T.);
#325=EDGE_CURVE('',#308,#308,#342,.T.);
#326=EDGE_CURVE('',#309,#309,#343,.T.);
#327=EDGE_CURVE('',#310,#310,#344,.T.);
#328=EDGE_CURVE('',#311,#311,#345,.T.);
#329=EDGE_CURVE('',#312,#312,#346,.T.);
#330=EDGE_CURVE('',#313,#313,#347,.T.);
#331=EDGE_CURVE('',#314,#314,#348,.T.);
#332=EDGE_CURVE('',#315,#315,#349,.T.);
#333=EDGE_CURVE('',#316,#316,#350,.T.);
#334=EDGE_CURVE('',#317,#317,#351,.T.);
#335=CIRCLE('',#353,1.24999999999997);
#336=CIRCLE('',#355,1.74999999999997);
#337=CIRCLE('',#356,4.15000000000001);
#338=CIRCLE('',#358,4.90000000000001);
#339=CIRCLE('',#359,4.90000000000002);
#340=CIRCLE('',#361,5.49999999999999);
#341=CIRCLE('',#362,5.49999999999999);
#342=CIRCLE('',#364,4.79150005397897);
#343=CIRCLE('',#365,4.59999999999997);
#344=CIRCLE('',#367,4.85000000000003);
#345=CIRCLE('',#368,4.85000000000003);
#346=CIRCLE('',#370,4.55000000000003);
#347=CIRCLE('',#371,3.00000000000001);
#348=CIRCLE('',#373,3.00000000000002);
#349=CIRCLE('',#375,2.70000000000002);
#350=CIRCLE('',#378,4.99378707383065);
#351=CIRCLE('',#385,1.49999999999997);
#352=AXIS2_PLACEMENT_3D('',#460,#388,#389);
#353=AXIS2_PLACEMENT_3D('',#461,#390,#391);
#354=AXIS2_PLACEMENT_3D('',#463,#392,#393);
#355=AXIS2_PLACEMENT_3D('',#464,#394,#395);
#356=AXIS2_PLACEMENT_3D('',#466,#396,#397);
#357=AXIS2_PLACEMENT_3D('',#468,#398,#399);
#358=AXIS2_PLACEMENT_3D('',#469,#400,#401);
#359=AXIS2_PLACEMENT_3D('',#471,#402,#403);
#360=AXIS2_PLACEMENT_3D('',#473,#404,#405);
#361=AXIS2_PLACEMENT_3D('',#474,#406,#407);
#362=AXIS2_PLACEMENT_3D('',#476,#408,#409);
#363=AXIS2_PLACEMENT_3D('',#478,#410,#411);
#364=AXIS2_PLACEMENT_3D('',#479,#412,#413);
#365=AXIS2_PLACEMENT_3D('',#481,#414,#415);
#366=AXIS2_PLACEMENT_3D('',#483,#416,#417);
#367=AXIS2_PLACEMENT_3D('',#484,#418,#419);
#368=AXIS2_PLACEMENT_3D('',#486,#420,#421);
#369=AXIS2_PLACEMENT_3D('',#488,#422,#423);
#370=AXIS2_PLACEMENT_3D('',#489,#424,#425);
#371=AXIS2_PLACEMENT_3D('',#491,#426,#427);
#372=AXIS2_PLACEMENT_3D('',#493,#428,#429);
#373=AXIS2_PLACEMENT_3D('',#494,#430,#431);
#374=AXIS2_PLACEMENT_3D('',#496,#432,#433);
#375=AXIS2_PLACEMENT_3D('',#497,#434,#435);
#376=AXIS2_PLACEMENT_3D('',#499,#436,#437);
#377=AXIS2_PLACEMENT_3D('',#500,#438,#439);
#378=AXIS2_PLACEMENT_3D('',#501,#440,#441);
#379=AXIS2_PLACEMENT_3D('',#503,#442,#443);
#380=AXIS2_PLACEMENT_3D('',#504,#444,#445);
#381=AXIS2_PLACEMENT_3D('',#505,#446,#447);
#382=AXIS2_PLACEMENT_3D('',#506,#448,#449);
#383=AXIS2_PLACEMENT_3D('',#507,#450,#451);
#384=AXIS2_PLACEMENT_3D('',#508,#452,#453);
#385=AXIS2_PLACEMENT_3D('',#509,#454,#455);
#386=AXIS2_PLACEMENT_3D('',#511,#456,#457);
#387=AXIS2_PLACEMENT_3D('',#512,#458,#459);
#388=DIRECTION('',(0.,0.,1.));
#389=DIRECTION('',(1.,0.,0.));
#390=DIRECTION('',(0.,1.,0.));
#391=DIRECTION('',(0.,0.,1.));
#392=DIRECTION('',(0.,1.,0.));
#393=DIRECTION('',(0.,0.,1.));
#394=DIRECTION('',(0.,-1.,0.));
#395=DIRECTION('',(0.,0.,1.));
#396=DIRECTION('',(0.,1.,0.));
#397=DIRECTION('',(0.,0.,1.));
#398=DIRECTION('',(0.,1.,0.));
#399=DIRECTION('',(0.,0.,1.));
#400=DIRECTION('',(0.,-1.,0.));
#401=DIRECTION('',(0.,0.,1.));
#402=DIRECTION('',(0.,1.,0.));
#403=DIRECTION('',(0.,0.,1.));
#404=DIRECTION('',(0.,1.,0.));
#405=DIRECTION('',(0.,0.,1.));
#406=DIRECTION('',(0.,-1.,0.));
#407=DIRECTION('',(0.,0.,1.));
#408=DIRECTION('',(0.,1.,0.));
#409=DIRECTION('',(0.,0.,-1.));
#410=DIRECTION('',(0.,1.,0.));
#411=DIRECTION('',(0.,0.,1.));
#412=DIRECTION('',(0.,-1.,0.));
#413=DIRECTION('',(0.,0.,1.));
#414=DIRECTION('',(0.,1.,0.));
#415=DIRECTION('',(0.,0.,1.));
#416=DIRECTION('',(0.,1.,0.));
#417=DIRECTION('',(0.,-1.17997974956014E-15,1.));
#418=DIRECTION('',(0.,-1.,0.));
#419=DIRECTION('',(0.,0.,1.));
#420=DIRECTION('',(0.,1.,0.));
#421=DIRECTION('',(0.,0.,-1.));
#422=DIRECTION('',(0.,1.,0.));
#423=DIRECTION('',(0.,0.,1.));
#424=DIRECTION('',(0.,-1.,0.));
#425=DIRECTION('',(0.,0.,-1.));
#426=DIRECTION('',(0.,1.,0.));
#427=DIRECTION('',(0.,0.,1.));
#428=DIRECTION('',(0.,-1.,0.));
#429=DIRECTION('',(0.,0.,-1.));
#430=DIRECTION('',(0.,1.,0.));
#431=DIRECTION('',(0.,0.,-1.));
#432=DIRECTION('',(0.,1.,0.));
#433=DIRECTION('',(0.,0.,1.));
#434=DIRECTION('',(0.,-1.,0.));
#435=DIRECTION('',(0.,0.,-1.));
#436=DIRECTION('',(0.,-1.,0.));
#437=DIRECTION('',(0.,0.,-1.));
#438=DIRECTION('',(0.,1.,0.));
#439=DIRECTION('',(0.,0.,1.));
#440=DIRECTION('',(0.,1.,0.));
#441=DIRECTION('',(0.,0.,1.));
#442=DIRECTION('',(0.,-1.,0.));
#443=DIRECTION('',(0.,0.,-1.));
#444=DIRECTION('',(0.,1.,0.));
#445=DIRECTION('',(0.,0.,1.));
#446=DIRECTION('',(0.,1.,0.));
#447=DIRECTION('',(0.,0.,1.));
#448=DIRECTION('',(0.,-1.,0.));
#449=DIRECTION('',(0.,0.,-1.));
#450=DIRECTION('',(0.,-1.,0.));
#451=DIRECTION('',(0.,0.,-1.));
#452=DIRECTION('',(0.,1.,0.));
#453=DIRECTION('',(0.,0.,1.));
#454=DIRECTION('',(0.,1.,0.));
#455=DIRECTION('',(0.,0.,1.));
#456=DIRECTION('',(0.,1.,0.));
#457=DIRECTION('',(0.,0.,1.));
#458=DIRECTION('',(0.,1.,0.));
#459=DIRECTION('',(0.,0.,1.));
#460=CARTESIAN_POINT('',(0.,0.,0.));
#461=CARTESIAN_POINT('',(5.49999999999999,35.5,5.49999999999999));
#462=CARTESIAN_POINT('',(5.49999999999999,35.5,6.74999999999996));
#463=CARTESIAN_POINT('',(5.49999999999999,35.5,5.5));
#464=CARTESIAN_POINT('',(5.49999999999999,36.,5.49999999999999));
#465=CARTESIAN_POINT('',(5.49999999999999,36.,7.24999999999996));
#466=CARTESIAN_POINT('',(5.49999999999999,36.,5.49999999999999));
#467=CARTESIAN_POINT('',(5.49999999999999,36.,9.65));
#468=CARTESIAN_POINT('',(5.49999999999999,36.,4.00000000000001));
#469=CARTESIAN_POINT('',(5.49999999999999,35.25,5.49999999999999));
#470=CARTESIAN_POINT('',(5.49999999999999,35.25,10.4));
#471=CARTESIAN_POINT('',(5.49999999999999,29.,5.49999999999999));
#472=CARTESIAN_POINT('',(5.49999999999999,29.,10.4));
#473=CARTESIAN_POINT('',(5.49999999999999,36.,5.49999999999999));
#474=CARTESIAN_POINT('',(5.49999999999999,28.2651530771651,5.49999999999999));
#475=CARTESIAN_POINT('',(5.49999999999999,28.2651530771651,11.));
#476=CARTESIAN_POINT('',(5.49999999999999,15.2483314773548,5.49999999999999));
#477=CARTESIAN_POINT('',(5.49999999999999,15.2483314773548,-8.67361737988404E-16));
#478=CARTESIAN_POINT('',(5.49999999999999,36.,5.49999999999999));
#479=CARTESIAN_POINT('',(5.49999999999999,14.2662514844222,5.49999999999999));
#480=CARTESIAN_POINT('',(5.49999999999999,14.2662514844222,10.291500053979));
#481=CARTESIAN_POINT('',(5.49999999999999,9.00000000000001,5.49999999999999));
#482=CARTESIAN_POINT('',(5.49999999999999,9.00000000000001,10.1));
#483=CARTESIAN_POINT('',(5.49999999999999,14.5,5.49999999999999));
#484=CARTESIAN_POINT('',(5.49999999999999,8.70419601084502,5.49999999999999));
#485=CARTESIAN_POINT('',(5.49999999999999,8.70419601084502,10.35));
#486=CARTESIAN_POINT('',(5.49999999999999,3.10000000000002,5.49999999999999));
#487=CARTESIAN_POINT('',(5.49999999999999,3.10000000000002,0.649999999999962));
#488=CARTESIAN_POINT('',(5.49999999999999,36.,5.49999999999999));
#489=CARTESIAN_POINT('',(5.49999999999999,2.80000000000002,5.49999999999999));
#490=CARTESIAN_POINT('',(5.49999999999999,2.80000000000002,0.949999999999962));
#491=CARTESIAN_POINT('',(5.49999999999999,2.80000000000002,5.49999999999999));
#492=CARTESIAN_POINT('',(5.49999999999999,2.80000000000002,8.50000000000001));
#493=CARTESIAN_POINT('',(5.49999999999999,2.80000000000002,0.649999999999952));
#494=CARTESIAN_POINT('',(5.49999999999999,0.300000000000009,5.49999999999999));
#495=CARTESIAN_POINT('',(5.49999999999999,0.300000000000009,2.49999999999997));
#496=CARTESIAN_POINT('',(5.49999999999999,36.,5.49999999999999));
#497=CARTESIAN_POINT('',(5.49999999999999,7.04731412115578E-15,5.49999999999999));
#498=CARTESIAN_POINT('',(5.49999999999999,7.04731412115578E-15,2.79999999999997));
#499=CARTESIAN_POINT('',(5.49999999999999,7.02216063075412E-15,2.49999999999997));
#500=CARTESIAN_POINT('',(5.49999999999999,28.2651530771651,5.49999999999999));
#501=CARTESIAN_POINT('',(5.49999999999999,14.5390587070942,5.49999999999999));
#502=CARTESIAN_POINT('',(5.49999999999999,14.5390587070942,10.4937870738306));
#503=CARTESIAN_POINT('',(5.49999999999999,15.2483314773548,5.49999999999999));
#504=CARTESIAN_POINT('',(5.49999999999999,14.25534959899,5.49999999999999));
#505=CARTESIAN_POINT('',(5.49999999999999,8.70419601084502,5.49999999999999));
#506=CARTESIAN_POINT('',(5.49999999999999,3.10000000000002,5.49999999999999));
#507=CARTESIAN_POINT('',(5.49999999999999,0.300000000000009,5.49999999999999));
#508=CARTESIAN_POINT('',(5.49999999999999,35.25,5.49999999999999));
#509=CARTESIAN_POINT('',(5.49999999999999,35.75,5.49999999999999));
#510=CARTESIAN_POINT('',(5.49999999999999,35.75,6.99999999999996));
#511=CARTESIAN_POINT('',(5.49999999999999,35.75,5.49999999999999));
#512=CARTESIAN_POINT('',(5.49999999999999,35.75,5.49999999999999));
#513=MECHANICAL_DESIGN_GEOMETRIC_PRESENTATION_REPRESENTATION('',(#43,#24,
#25,#26,#27,#28,#29,#30,#31,#32,#33,#34,#35,#36,#37,#38,#39,#40,#41),#514);
#514=(
GEOMETRIC_REPRESENTATION_CONTEXT(3)
GLOBAL_UNCERTAINTY_ASSIGNED_CONTEXT((#515))
GLOBAL_UNIT_ASSIGNED_CONTEXT((#521,#517,#516))
REPRESENTATION_CONTEXT('5SE2316_3D_v_1','TOP_LEVEL_ASSEMBLY_PART')
);
#515=UNCERTAINTY_MEASURE_WITH_UNIT(LENGTH_MEASURE(2.E-5),#521,
'DISTANCE_ACCURACY_VALUE','Maximum Tolerance applied to model');
#516=(
NAMED_UNIT(*)
SI_UNIT($,.STERADIAN.)
SOLID_ANGLE_UNIT()
);
#517=(
CONVERSION_BASED_UNIT('DEGREE',#519)
NAMED_UNIT(#518)
PLANE_ANGLE_UNIT()
);
#518=DIMENSIONAL_EXPONENTS(0.,0.,0.,0.,0.,0.,0.);
#519=PLANE_ANGLE_MEASURE_WITH_UNIT(PLANE_ANGLE_MEASURE(0.0174532925),#520);
#520=(
NAMED_UNIT(*)
PLANE_ANGLE_UNIT()
SI_UNIT($,.RADIAN.)
);
#521=(
LENGTH_UNIT()
NAMED_UNIT(*)
SI_UNIT(.MILLI.,.METRE.)
);
ENDSEC;
END-ISO-10303-21;
