ISO-10303-21;
HEADER;
FILE_DESCRIPTION(('STEP AP214'),'1');
FILE_NAME('cctmp_E21212E1-CD77-49C2-92E8-85FD43EC30AD_2023_07_24_22_15_37_0792..stp','2023-07-24T20:15:37',('SIEMENS A&D'),('CADClick - www.CADClick.com'),'Spatial InterOp 3D postprocessed',' ','unknown authorization');
FILE_SCHEMA(('AUTOMOTIVE_DESIGN'));
ENDSEC;
DATA;
#1=MECHANICAL_DESIGN_GEOMETRIC_PRESENTATION_REPRESENTATION(' ',(#10,#11,#12,#13,#14,#15,#16,#17,#18,#19,#20,#21,#22,#23,#24,#25,#26,#27),#6);
#2=PRODUCT_DEFINITION_CONTEXT('',#28,'design');
#3=APPLICATION_PROTOCOL_DEFINITION('INTERNATIONAL STANDARD','automotive_design',1994,#28);
#4=PRODUCT_CATEGORY_RELATIONSHIP('NONE','NONE',#29,#30);
#5=SHAPE_DEFINITION_REPRESENTATION(#31,#32);
#6= (GEOMETRIC_REPRESENTATION_CONTEXT(3)GLOBAL_UNCERTAINTY_ASSIGNED_CONTEXT((#35))GLOBAL_UNIT_ASSIGNED_CONTEXT((#37,#38,#39))REPRESENTATION_CONTEXT('NONE','WORKSPACE'));
#10=STYLED_ITEM('',(#41),#42);
#11=STYLED_ITEM('',(#43),#44);
#12=STYLED_ITEM('',(#45),#46);
#13=STYLED_ITEM('',(#47),#48);
#14=STYLED_ITEM('',(#49),#50);
#15=STYLED_ITEM('',(#51),#52);
#16=STYLED_ITEM('',(#53),#54);
#17=STYLED_ITEM('',(#55),#56);
#18=STYLED_ITEM('',(#57),#58);
#19=STYLED_ITEM('',(#59),#60);
#20=STYLED_ITEM('',(#61),#62);
#21=STYLED_ITEM('',(#63),#64);
#22=STYLED_ITEM('',(#65),#66);
#23=STYLED_ITEM('',(#67),#68);
#24=STYLED_ITEM('',(#69),#70);
#25=STYLED_ITEM('',(#71),#72);
#26=STYLED_ITEM('',(#73),#74);
#27=STYLED_ITEM('',(#75),#76);
#28=APPLICATION_CONTEXT(' ');
#29=PRODUCT_CATEGORY('part','NONE');
#30=PRODUCT_RELATED_PRODUCT_CATEGORY('detail',' ',(#77));
#31=PRODUCT_DEFINITION_SHAPE('NONE','NONE',#78);
#32=ADVANCED_BREP_SHAPE_REPRESENTATION('2023_07_24_22_15_37_0792',(#76,#79),#6);
#35=UNCERTAINTY_MEASURE_WITH_UNIT(LENGTH_MEASURE(1.0E-006),#37,'','');
#37= (CONVERSION_BASED_UNIT('MILLIMETRE',#82)LENGTH_UNIT()NAMED_UNIT(#85));
#38= (NAMED_UNIT(#87)PLANE_ANGLE_UNIT()SI_UNIT($,.RADIAN.));
#39= (NAMED_UNIT(#87)SOLID_ANGLE_UNIT()SI_UNIT($,.STERADIAN.));
#41=PRESENTATION_STYLE_ASSIGNMENT((#93));
#42=ADVANCED_FACE('',(#94),#95,.T.);
#43=PRESENTATION_STYLE_ASSIGNMENT((#96));
#44=ADVANCED_FACE('',(#97),#98,.F.);
#45=PRESENTATION_STYLE_ASSIGNMENT((#99));
#46=ADVANCED_FACE('',(#100),#101,.F.);
#47=PRESENTATION_STYLE_ASSIGNMENT((#102));
#48=ADVANCED_FACE('',(#103),#104,.F.);
#49=PRESENTATION_STYLE_ASSIGNMENT((#105));
#50=ADVANCED_FACE('',(#106),#107,.F.);
#51=PRESENTATION_STYLE_ASSIGNMENT((#108));
#52=ADVANCED_FACE('',(#109),#110,.F.);
#53=PRESENTATION_STYLE_ASSIGNMENT((#111));
#54=ADVANCED_FACE('',(#112),#113,.T.);
#55=PRESENTATION_STYLE_ASSIGNMENT((#114));
#56=ADVANCED_FACE('',(#115),#116,.F.);
#57=PRESENTATION_STYLE_ASSIGNMENT((#117));
#58=ADVANCED_FACE('',(#118),#119,.T.);
#59=PRESENTATION_STYLE_ASSIGNMENT((#120));
#60=ADVANCED_FACE('',(#121),#122,.F.);
#61=PRESENTATION_STYLE_ASSIGNMENT((#123));
#62=ADVANCED_FACE('',(#124),#125,.F.);
#63=PRESENTATION_STYLE_ASSIGNMENT((#126));
#64=ADVANCED_FACE('',(#127),#128,.F.);
#65=PRESENTATION_STYLE_ASSIGNMENT((#129));
#66=ADVANCED_FACE('',(#130),#131,.T.);
#67=PRESENTATION_STYLE_ASSIGNMENT((#132));
#68=ADVANCED_FACE('',(#133),#134,.T.);
#69=PRESENTATION_STYLE_ASSIGNMENT((#135));
#70=ADVANCED_FACE('',(#136),#137,.T.);
#71=PRESENTATION_STYLE_ASSIGNMENT((#138));
#72=ADVANCED_FACE('',(#139),#140,.T.);
#73=PRESENTATION_STYLE_ASSIGNMENT((#141));
#74=ADVANCED_FACE('',(#142),#143,.T.);
#75=PRESENTATION_STYLE_ASSIGNMENT((#144));
#76=MANIFOLD_SOLID_BREP('2023_07_24_22_15_37_0792',#145);
#77=PRODUCT('2023_07_24_22_15_37_0792','','PART--DESC',(#146));
#78=PRODUCT_DEFINITION('','NONE',#147,#2);
#79=AXIS2_PLACEMENT_3D('',#148,#149,#150);
#82=LENGTH_MEASURE_WITH_UNIT(LENGTH_MEASURE(1.0),#151);
#85=DIMENSIONAL_EXPONENTS(1.0,0.0,0.0,0.0,0.0,0.0,0.0);
#87=DIMENSIONAL_EXPONENTS(0.0,0.0,0.0,0.0,0.0,0.0,0.0);
#93=SURFACE_STYLE_USAGE(.BOTH.,#152);
#94=FACE_OUTER_BOUND('',#153,.T.);
#95=PLANE('',#154);
#96=SURFACE_STYLE_USAGE(.BOTH.,#152);
#97=FACE_OUTER_BOUND('',#156,.T.);
#98=PLANE('',#157);
#99=SURFACE_STYLE_USAGE(.BOTH.,#152);
#100=FACE_OUTER_BOUND('',#159,.T.);
#101=PLANE('',#160);
#102=SURFACE_STYLE_USAGE(.BOTH.,#152);
#103=FACE_OUTER_BOUND('',#162,.T.);
#104=CYLINDRICAL_SURFACE('',#163,25.0);
#105=SURFACE_STYLE_USAGE(.BOTH.,#152);
#106=FACE_OUTER_BOUND('',#165,.T.);
#107=PLANE('',#166);
#108=SURFACE_STYLE_USAGE(.BOTH.,#152);
#109=FACE_OUTER_BOUND('',#168,.T.);
#110=PLANE('',#169);
#111=SURFACE_STYLE_USAGE(.BOTH.,#152);
#112=FACE_OUTER_BOUND('',#171,.T.);
#113=PLANE('',#172);
#114=SURFACE_STYLE_USAGE(.BOTH.,#152);
#115=FACE_OUTER_BOUND('',#174,.T.);
#116=PLANE('',#175);
#117=SURFACE_STYLE_USAGE(.BOTH.,#152);
#118=FACE_OUTER_BOUND('',#177,.T.);
#119=CYLINDRICAL_SURFACE('',#178,25.0);
#120=SURFACE_STYLE_USAGE(.BOTH.,#152);
#121=FACE_OUTER_BOUND('',#180,.T.);
#122=PLANE('',#181);
#123=SURFACE_STYLE_USAGE(.BOTH.,#152);
#124=FACE_OUTER_BOUND('',#183,.T.);
#125=PLANE('',#184);
#126=SURFACE_STYLE_USAGE(.BOTH.,#152);
#127=FACE_OUTER_BOUND('',#186,.T.);
#128=CYLINDRICAL_SURFACE('',#187,25.0);
#129=SURFACE_STYLE_USAGE(.BOTH.,#152);
#130=FACE_OUTER_BOUND('',#189,.T.);
#131=PLANE('',#190);
#132=SURFACE_STYLE_USAGE(.BOTH.,#152);
#133=FACE_OUTER_BOUND('',#192,.T.);
#134=PLANE('',#193);
#135=SURFACE_STYLE_USAGE(.BOTH.,#152);
#136=FACE_OUTER_BOUND('',#195,.T.);
#137=PLANE('',#196);
#138=SURFACE_STYLE_USAGE(.BOTH.,#152);
#139=FACE_OUTER_BOUND('',#198,.T.);
#140=PLANE('',#199);
#141=SURFACE_STYLE_USAGE(.BOTH.,#152);
#142=FACE_OUTER_BOUND('',#201,.T.);
#143=PLANE('',#202);
#144=SURFACE_STYLE_USAGE(.BOTH.,#152);
#145=CLOSED_SHELL('',(#42,#44,#46,#48,#50,#52,#54,#56,#58,#60,#62,#64,#66,#68,#70,#72,#74));
#146=PRODUCT_CONTEXT('',#28,'mechanical');
#147=PRODUCT_DEFINITION_FORMATION_WITH_SPECIFIED_SOURCE(' ','NONE',#77,.NOT_KNOWN.);
#148=CARTESIAN_POINT('',(0.0,0.0,0.0));
#149=DIRECTION('',(0.0,0.0,1.0));
#150=DIRECTION('',(1.0,0.0,0.0));
#151= (NAMED_UNIT(#85)LENGTH_UNIT()SI_UNIT(.MILLI.,.METRE.));
#152=SURFACE_SIDE_STYLE('',(#205));
#153=EDGE_LOOP('',(#206,#207,#208,#209,#210,#211,#212,#213,#214,#215,#216,#217,#218,#219,#220));
#154=AXIS2_PLACEMENT_3D('',#221,#222,#223);
#156=EDGE_LOOP('',(#225,#226,#227,#228));
#157=AXIS2_PLACEMENT_3D('',#229,#230,#231);
#159=EDGE_LOOP('',(#233,#234,#235,#236));
#160=AXIS2_PLACEMENT_3D('',#237,#238,#239);
#162=EDGE_LOOP('',(#241,#242,#243,#244));
#163=AXIS2_PLACEMENT_3D('',#245,#246,#247);
#165=EDGE_LOOP('',(#249,#250,#251,#252));
#166=AXIS2_PLACEMENT_3D('',#253,#254,#255);
#168=EDGE_LOOP('',(#257,#258,#259,#260));
#169=AXIS2_PLACEMENT_3D('',#261,#262,#263);
#171=EDGE_LOOP('',(#265,#266,#267,#268));
#172=AXIS2_PLACEMENT_3D('',#269,#270,#271);
#174=EDGE_LOOP('',(#273,#274,#275,#276));
#175=AXIS2_PLACEMENT_3D('',#277,#278,#279);
#177=EDGE_LOOP('',(#281,#282,#283,#284));
#178=AXIS2_PLACEMENT_3D('',#285,#286,#287);
#180=EDGE_LOOP('',(#289,#290,#291,#292,#293,#294,#295,#296,#297,#298,#299,#300,#301,#302,#303));
#181=AXIS2_PLACEMENT_3D('',#304,#305,#306);
#183=EDGE_LOOP('',(#308,#309,#310,#311));
#184=AXIS2_PLACEMENT_3D('',#312,#313,#314);
#186=EDGE_LOOP('',(#316,#317,#318,#319));
#187=AXIS2_PLACEMENT_3D('',#320,#321,#322);
#189=EDGE_LOOP('',(#324,#325,#326,#327));
#190=AXIS2_PLACEMENT_3D('',#328,#329,#330);
#192=EDGE_LOOP('',(#332,#333,#334,#335));
#193=AXIS2_PLACEMENT_3D('',#336,#337,#338);
#195=EDGE_LOOP('',(#340,#341,#342,#343));
#196=AXIS2_PLACEMENT_3D('',#344,#345,#346);
#198=EDGE_LOOP('',(#348,#349,#350,#351));
#199=AXIS2_PLACEMENT_3D('',#352,#353,#354);
#201=EDGE_LOOP('',(#356,#357,#358,#359));
#202=AXIS2_PLACEMENT_3D('',#360,#361,#362);
#205=SURFACE_STYLE_FILL_AREA(#364);
#206=ORIENTED_EDGE('',*,*,#365,.F.);
#207=ORIENTED_EDGE('',*,*,#366,.T.);
#208=ORIENTED_EDGE('',*,*,#367,.T.);
#209=ORIENTED_EDGE('',*,*,#368,.T.);
#210=ORIENTED_EDGE('',*,*,#369,.T.);
#211=ORIENTED_EDGE('',*,*,#370,.T.);
#212=ORIENTED_EDGE('',*,*,#371,.T.);
#213=ORIENTED_EDGE('',*,*,#372,.F.);
#214=ORIENTED_EDGE('',*,*,#373,.F.);
#215=ORIENTED_EDGE('',*,*,#374,.F.);
#216=ORIENTED_EDGE('',*,*,#375,.F.);
#217=ORIENTED_EDGE('',*,*,#376,.F.);
#218=ORIENTED_EDGE('',*,*,#377,.F.);
#219=ORIENTED_EDGE('',*,*,#378,.T.);
#220=ORIENTED_EDGE('',*,*,#379,.F.);
#221=CARTESIAN_POINT('',(2.19999999999969,9.14659209550868,31.1309793426935));
#222=DIRECTION('',(1.0,-1.11631705655199E-028,1.05655906439346E-014));
#223=DIRECTION('',(6.27781712017518E-043,1.0,1.05655906439346E-014));
#225=ORIENTED_EDGE('',*,*,#366,.F.);
#226=ORIENTED_EDGE('',*,*,#381,.T.);
#227=ORIENTED_EDGE('',*,*,#382,.T.);
#228=ORIENTED_EDGE('',*,*,#383,.T.);
#229=CARTESIAN_POINT('',(2.19999999999994,46.9999999999998,7.95591523261638));
#230=DIRECTION('',(0.0,-1.0,-1.05655906439346E-014));
#231=DIRECTION('',(1.0,-1.11631705655198E-028,1.05655906439346E-014));
#233=ORIENTED_EDGE('',*,*,#385,.F.);
#234=ORIENTED_EDGE('',*,*,#386,.T.);
#235=ORIENTED_EDGE('',*,*,#378,.F.);
#236=ORIENTED_EDGE('',*,*,#387,.T.);
#237=CARTESIAN_POINT('',(-2.20000240000008,-8.79296635503124E-014,8.80658585545274));
#238=DIRECTION('',(2.93254050041516E-031,1.0,1.0537835068319E-014));
#239=DIRECTION('',(1.0,-1.11631705655198E-028,1.05655906439346E-014));
#241=ORIENTED_EDGE('',*,*,#383,.F.);
#242=ORIENTED_EDGE('',*,*,#389,.T.);
#243=ORIENTED_EDGE('',*,*,#390,.F.);
#244=ORIENTED_EDGE('',*,*,#367,.F.);
#245=CARTESIAN_POINT('',(2.19999999999979,67.7499999999994,21.9000000000015));
#246=DIRECTION('',(-1.0,1.11631705655199E-028,-1.05655906439346E-014));
#247=DIRECTION('',(-6.02670443536817E-043,-1.0,-1.05655906439346E-014));
#249=ORIENTED_EDGE('',*,*,#371,.F.);
#250=ORIENTED_EDGE('',*,*,#392,.F.);
#251=ORIENTED_EDGE('',*,*,#393,.T.);
#252=ORIENTED_EDGE('',*,*,#394,.T.);
#253=CARTESIAN_POINT('',(1.0999999999996,35.5999999999973,39.8000000000031));
#254=DIRECTION('',(7.47100079156643E-015,-0.707106781186622,-0.707106781186473));
#255=DIRECTION('',(-7.47100079156816E-015,-0.707106781186473,0.707106781186622));
#257=ORIENTED_EDGE('',*,*,#370,.F.);
#258=ORIENTED_EDGE('',*,*,#396,.F.);
#259=ORIENTED_EDGE('',*,*,#397,.T.);
#260=ORIENTED_EDGE('',*,*,#392,.T.);
#261=CARTESIAN_POINT('',(1.0999999999997,44.7999999999993,30.600000000003));
#262=DIRECTION('',(0.0,-1.0,-1.05655906439346E-014));
#263=DIRECTION('',(1.0,-1.11631705655198E-028,1.05655906439346E-014));
#265=ORIENTED_EDGE('',*,*,#399,.F.);
#266=ORIENTED_EDGE('',*,*,#381,.F.);
#267=ORIENTED_EDGE('',*,*,#365,.T.);
#268=ORIENTED_EDGE('',*,*,#400,.T.);
#269=CARTESIAN_POINT('',(1.10000000000002,-1.00000000000075,-2.41584530158434E-013));
#270=DIRECTION('',(1.05655906439346E-014,1.05655906439346E-014,-1.0));
#271=DIRECTION('',(-1.0,1.11631705655199E-028,-1.05655906439346E-014));
#273=ORIENTED_EDGE('',*,*,#369,.F.);
#274=ORIENTED_EDGE('',*,*,#402,.T.);
#275=ORIENTED_EDGE('',*,*,#403,.T.);
#276=ORIENTED_EDGE('',*,*,#396,.T.);
#277=CARTESIAN_POINT('',(1.09999999999971,44.7999999999993,29.4000000000035));
#278=DIRECTION('',(-6.06017382949196E-015,-0.819152044288998,0.573576436351037));
#279=DIRECTION('',(1.0,-1.11631705655199E-028,1.05655906439346E-014));
#281=ORIENTED_EDGE('',*,*,#400,.F.);
#282=ORIENTED_EDGE('',*,*,#379,.T.);
#283=ORIENTED_EDGE('',*,*,#386,.F.);
#284=ORIENTED_EDGE('',*,*,#405,.F.);
#285=CARTESIAN_POINT('',(-2.20000240000006,24.9999999999999,6.427605881554));
#286=DIRECTION('',(1.0,-1.1179862966537E-028,1.05655906439346E-014));
#287=DIRECTION('',(-1.28762159446387E-015,-0.992546151641323,0.121869343405137));
#289=ORIENTED_EDGE('',*,*,#405,.T.);
#290=ORIENTED_EDGE('',*,*,#385,.T.);
#291=ORIENTED_EDGE('',*,*,#407,.T.);
#292=ORIENTED_EDGE('',*,*,#408,.F.);
#293=ORIENTED_EDGE('',*,*,#409,.F.);
#294=ORIENTED_EDGE('',*,*,#410,.F.);
#295=ORIENTED_EDGE('',*,*,#411,.T.);
#296=ORIENTED_EDGE('',*,*,#412,.F.);
#297=ORIENTED_EDGE('',*,*,#393,.F.);
#298=ORIENTED_EDGE('',*,*,#397,.F.);
#299=ORIENTED_EDGE('',*,*,#403,.F.);
#300=ORIENTED_EDGE('',*,*,#413,.F.);
#301=ORIENTED_EDGE('',*,*,#389,.F.);
#302=ORIENTED_EDGE('',*,*,#382,.F.);
#303=ORIENTED_EDGE('',*,*,#399,.T.);
#304=CARTESIAN_POINT('',(-3.74282558114154E-013,49.425976999991,-3.98000240000002));
#305=DIRECTION('',(1.0,-6.27781712017518E-043,0.0));
#306=DIRECTION('',(6.27781712017518E-043,1.0,1.05655906439346E-014));
#308=ORIENTED_EDGE('',*,*,#368,.F.);
#309=ORIENTED_EDGE('',*,*,#390,.T.);
#310=ORIENTED_EDGE('',*,*,#413,.T.);
#311=ORIENTED_EDGE('',*,*,#402,.F.);
#312=CARTESIAN_POINT('',(1.09999999999974,42.7499999999993,26.4722965861822));
#313=DIRECTION('',(0.0,-1.0,-1.05655906439346E-014));
#314=DIRECTION('',(1.0,-1.11631705655198E-028,1.05655906439346E-014));
#316=ORIENTED_EDGE('',*,*,#387,.F.);
#317=ORIENTED_EDGE('',*,*,#377,.T.);
#318=ORIENTED_EDGE('',*,*,#416,.T.);
#319=ORIENTED_EDGE('',*,*,#407,.F.);
#320=CARTESIAN_POINT('',(2.19999999999979,-21.7500000000006,21.9000000000005));
#321=DIRECTION('',(-1.0,1.11631705655199E-028,-1.05655906439346E-014));
#322=DIRECTION('',(6.02670443536817E-043,1.0,1.05655906439346E-014));
#324=ORIENTED_EDGE('',*,*,#418,.T.);
#325=ORIENTED_EDGE('',*,*,#409,.T.);
#326=ORIENTED_EDGE('',*,*,#419,.T.);
#327=ORIENTED_EDGE('',*,*,#375,.T.);
#328=CARTESIAN_POINT('',(1.09999999999971,1.19999999999928,29.4000000000031));
#329=DIRECTION('',(6.06017382949196E-015,-0.819152044288986,-0.573576436351055));
#330=DIRECTION('',(-8.65482517509968E-015,-0.573576436351055,0.819152044288986));
#332=ORIENTED_EDGE('',*,*,#421,.T.);
#333=ORIENTED_EDGE('',*,*,#411,.F.);
#334=ORIENTED_EDGE('',*,*,#422,.F.);
#335=ORIENTED_EDGE('',*,*,#373,.T.);
#336=CARTESIAN_POINT('',(1.0999999999996,10.4000000000011,39.8000000000028));
#337=DIRECTION('',(-7.47100079156643E-015,-0.707106781186637,0.707106781186458));
#338=DIRECTION('',(1.0,-1.11631705655199E-028,1.05655906439346E-014));
#340=ORIENTED_EDGE('',*,*,#372,.T.);
#341=ORIENTED_EDGE('',*,*,#394,.F.);
#342=ORIENTED_EDGE('',*,*,#412,.T.);
#343=ORIENTED_EDGE('',*,*,#421,.F.);
#344=CARTESIAN_POINT('',(1.59999999999976,17.7999999999992,39.8000000000029));
#345=DIRECTION('',(0.0,-1.05655906439346E-014,1.0));
#346=DIRECTION('',(-1.61097812794554E-028,1.0,1.05655906439346E-014));
#348=ORIENTED_EDGE('',*,*,#422,.T.);
#349=ORIENTED_EDGE('',*,*,#410,.T.);
#350=ORIENTED_EDGE('',*,*,#418,.F.);
#351=ORIENTED_EDGE('',*,*,#374,.T.);
#352=CARTESIAN_POINT('',(1.0999999999997,1.19999999999927,30.6000000000026));
#353=DIRECTION('',(0.0,-1.0,-1.05655906439346E-014));
#354=DIRECTION('',(1.0,-1.11631705655198E-028,1.05655906439346E-014));
#356=ORIENTED_EDGE('',*,*,#419,.F.);
#357=ORIENTED_EDGE('',*,*,#408,.T.);
#358=ORIENTED_EDGE('',*,*,#416,.F.);
#359=ORIENTED_EDGE('',*,*,#376,.T.);
#360=CARTESIAN_POINT('',(1.09999999999974,3.24999999999932,26.4722965861818));
#361=DIRECTION('',(0.0,-1.0,-1.05655906439346E-014));
#362=DIRECTION('',(1.0,-1.11631705655198E-028,1.05655906439346E-014));
#364=FILL_AREA_STYLE('',(#427));
#365=EDGE_CURVE('',#428,#429,#430,.T.);
#366=EDGE_CURVE('',#428,#431,#432,.T.);
#367=EDGE_CURVE('',#431,#433,#434,.T.);
#368=EDGE_CURVE('',#433,#435,#436,.T.);
#369=EDGE_CURVE('',#435,#437,#438,.T.);
#370=EDGE_CURVE('',#437,#439,#440,.T.);
#371=EDGE_CURVE('',#439,#441,#442,.T.);
#372=EDGE_CURVE('',#443,#441,#444,.T.);
#373=EDGE_CURVE('',#445,#443,#446,.T.);
#374=EDGE_CURVE('',#447,#445,#448,.T.);
#375=EDGE_CURVE('',#449,#447,#450,.T.);
#376=EDGE_CURVE('',#451,#449,#452,.T.);
#377=EDGE_CURVE('',#453,#451,#454,.T.);
#378=EDGE_CURVE('',#453,#455,#456,.T.);
#379=EDGE_CURVE('',#429,#455,#457,.T.);
#381=EDGE_CURVE('',#428,#459,#460,.T.);
#382=EDGE_CURVE('',#459,#461,#462,.T.);
#383=EDGE_CURVE('',#461,#431,#463,.T.);
#385=EDGE_CURVE('',#465,#466,#467,.T.);
#386=EDGE_CURVE('',#465,#455,#468,.T.);
#387=EDGE_CURVE('',#453,#466,#469,.T.);
#389=EDGE_CURVE('',#461,#471,#472,.T.);
#390=EDGE_CURVE('',#433,#471,#473,.T.);
#392=EDGE_CURVE('',#475,#439,#476,.T.);
#393=EDGE_CURVE('',#475,#477,#478,.T.);
#394=EDGE_CURVE('',#477,#441,#479,.T.);
#396=EDGE_CURVE('',#481,#437,#482,.T.);
#397=EDGE_CURVE('',#481,#475,#483,.T.);
#399=EDGE_CURVE('',#459,#485,#486,.T.);
#400=EDGE_CURVE('',#429,#485,#487,.T.);
#402=EDGE_CURVE('',#435,#489,#490,.T.);
#403=EDGE_CURVE('',#489,#481,#491,.T.);
#405=EDGE_CURVE('',#485,#465,#493,.T.);
#407=EDGE_CURVE('',#466,#495,#496,.T.);
#408=EDGE_CURVE('',#497,#495,#498,.T.);
#409=EDGE_CURVE('',#499,#497,#500,.T.);
#410=EDGE_CURVE('',#501,#499,#502,.T.);
#411=EDGE_CURVE('',#501,#503,#504,.T.);
#412=EDGE_CURVE('',#477,#503,#505,.T.);
#413=EDGE_CURVE('',#471,#489,#506,.T.);
#416=EDGE_CURVE('',#451,#495,#509,.T.);
#418=EDGE_CURVE('',#447,#499,#511,.T.);
#419=EDGE_CURVE('',#497,#449,#512,.T.);
#421=EDGE_CURVE('',#443,#503,#514,.T.);
#422=EDGE_CURVE('',#445,#501,#515,.T.);
#427=FILL_AREA_STYLE_COLOUR('',#520);
#428=VERTEX_POINT('',#521);
#429=VERTEX_POINT('',#522);
#430=LINE('',#523,#524);
#431=VERTEX_POINT('',#525);
#432=LINE('',#526,#527);
#433=VERTEX_POINT('',#528);
#434=CIRCLE('',#529,25.0);
#435=VERTEX_POINT('',#530);
#436=LINE('',#531,#532);
#437=VERTEX_POINT('',#533);
#438=LINE('',#534,#535);
#439=VERTEX_POINT('',#536);
#440=LINE('',#537,#538);
#441=VERTEX_POINT('',#539);
#442=LINE('',#540,#541);
#443=VERTEX_POINT('',#542);
#444=LINE('',#543,#544);
#445=VERTEX_POINT('',#545);
#446=LINE('',#546,#547);
#447=VERTEX_POINT('',#548);
#448=LINE('',#549,#550);
#449=VERTEX_POINT('',#551);
#450=LINE('',#552,#553);
#451=VERTEX_POINT('',#554);
#452=LINE('',#555,#556);
#453=VERTEX_POINT('',#557);
#454=CIRCLE('',#558,25.0);
#455=VERTEX_POINT('',#559);
#456=LINE('',#560,#561);
#457=CIRCLE('',#562,25.0);
#459=VERTEX_POINT('',#564);
#460=LINE('',#565,#566);
#461=VERTEX_POINT('',#567);
#462=LINE('',#568,#569);
#463=LINE('',#570,#571);
#465=VERTEX_POINT('',#573);
#466=VERTEX_POINT('',#574);
#467=LINE('',#575,#576);
#468=LINE('',#577,#578);
#469=LINE('',#579,#580);
#471=VERTEX_POINT('',#582);
#472=CIRCLE('',#583,25.0);
#473=LINE('',#584,#585);
#475=VERTEX_POINT('',#587);
#476=LINE('',#588,#589);
#477=VERTEX_POINT('',#590);
#478=LINE('',#591,#592);
#479=LINE('',#593,#594);
#481=VERTEX_POINT('',#596);
#482=LINE('',#597,#598);
#483=LINE('',#599,#600);
#485=VERTEX_POINT('',#602);
#486=LINE('',#603,#604);
#487=LINE('',#605,#606);
#489=VERTEX_POINT('',#608);
#490=LINE('',#609,#610);
#491=LINE('',#611,#612);
#493=CIRCLE('',#614,25.0);
#495=VERTEX_POINT('',#616);
#496=CIRCLE('',#617,25.0);
#497=VERTEX_POINT('',#618);
#498=LINE('',#619,#620);
#499=VERTEX_POINT('',#621);
#500=LINE('',#622,#623);
#501=VERTEX_POINT('',#624);
#502=LINE('',#625,#626);
#503=VERTEX_POINT('',#627);
#504=LINE('',#628,#629);
#505=LINE('',#630,#631);
#506=LINE('',#632,#633);
#509=LINE('',#636,#637);
#511=LINE('',#639,#640);
#512=LINE('',#641,#642);
#514=LINE('',#644,#645);
#515=LINE('',#646,#647);
#520=COLOUR_RGB('',0.560784339904785,0.588235318660736,0.600000023841858);
#521=CARTESIAN_POINT('',(2.20000000000002,46.9999999999999,2.77111666946439E-013));
#522=CARTESIAN_POINT('',(2.20000000000002,0.840408061570826,-2.1316282072803E-013));
#523=CARTESIAN_POINT('',(2.20000000000002,41.9906041739489,2.20268248085631E-013));
#524=VECTOR('',#652,1.0);
#525=CARTESIAN_POINT('',(2.19999999999994,46.9999999999998,7.95591523261638));
#526=CARTESIAN_POINT('',(2.19999999999976,46.9999999999996,24.363873000008));
#527=VECTOR('',#653,1.0);
#528=CARTESIAN_POINT('',(2.19999999999979,42.7499999999994,21.9000000000012));
#529=AXIS2_PLACEMENT_3D('',#654,#655,#656);
#530=CARTESIAN_POINT('',(2.19999999999974,42.7499999999993,26.4722965861822));
#531=CARTESIAN_POINT('',(2.19999999999976,42.7499999999993,24.3638730000079));
#532=VECTOR('',#657,1.0);
#533=CARTESIAN_POINT('',(2.19999999999971,44.7999999999993,29.4000000000036));
#534=CARTESIAN_POINT('',(2.19999999999976,41.2736659112209,24.3638730000079));
#535=VECTOR('',#658,1.0);
#536=CARTESIAN_POINT('',(2.1999999999997,44.7999999999993,30.5999999999991));
#537=CARTESIAN_POINT('',(2.19999999999976,44.7999999999994,24.3638730000079));
#538=VECTOR('',#659,1.0);
#539=CARTESIAN_POINT('',(2.1999999999996,35.5999999999973,39.8000000000031));
#540=CARTESIAN_POINT('',(2.19999999999976,51.036126999989,24.363873000008));
#541=VECTOR('',#660,1.0);
#542=CARTESIAN_POINT('',(2.1999999999996,10.4000000000011,39.8000000000028));
#543=CARTESIAN_POINT('',(2.1999999999996,41.9906041739485,39.8000000000031));
#544=VECTOR('',#661,1.0);
#545=CARTESIAN_POINT('',(2.1999999999997,1.19999999999927,30.5999999999986));
#546=CARTESIAN_POINT('',(2.19999999999976,-5.03612699999034,24.3638730000074));
#547=VECTOR('',#662,1.0);
#548=CARTESIAN_POINT('',(2.19999999999971,1.19999999999928,29.4000000000031));
#549=CARTESIAN_POINT('',(2.19999999999976,1.19999999999934,24.3638730000075));
#550=VECTOR('',#663,1.0);
#551=CARTESIAN_POINT('',(2.19999999999974,3.24999999999932,26.4722965861818));
#552=CARTESIAN_POINT('',(2.19999999999976,4.72633408877775,24.3638730000075));
#553=VECTOR('',#664,1.0);
#554=CARTESIAN_POINT('',(2.19999999999979,3.24999999999936,21.9000000000008));
#555=CARTESIAN_POINT('',(2.19999999999976,3.24999999999934,24.3638730000075));
#556=VECTOR('',#665,1.0);
#557=CARTESIAN_POINT('',(2.19999999999992,-9.59232693276135E-014,9.57370696438048));
#558=AXIS2_PLACEMENT_3D('',#666,#667,#668);
#559=CARTESIAN_POINT('',(2.19999999999995,-7.28306304154103E-014,6.42760588155378));
#560=CARTESIAN_POINT('',(2.19999999999976,-2.52242671194836E-013,24.3638730000075));
#561=VECTOR('',#669,1.0);
#562=AXIS2_PLACEMENT_3D('',#670,#671,#672);
#564=CARTESIAN_POINT('',(-3.74282558114154E-013,46.9999999999999,2.55795384873636E-013));
#565=CARTESIAN_POINT('',(1.06581410364009E-014,46.9999999999999,2.55795384873636E-013));
#566=VECTOR('',#673,1.0);
#567=CARTESIAN_POINT('',(-3.74282558114154E-013,46.9999999999998,7.95591523261636));
#568=CARTESIAN_POINT('',(-3.74282558114153E-013,46.9999999999996,24.363873000008));
#569=VECTOR('',#674,1.0);
#570=CARTESIAN_POINT('',(2.19999999999994,46.9999999999999,7.95591523261638));
#571=VECTOR('',#675,1.0);
#573=CARTESIAN_POINT('',(-3.7433300736159E-013,-7.28306304154103E-014,6.42760588155376));
#574=CARTESIAN_POINT('',(-2.44148594302353E-013,-9.59232693276135E-014,9.57370696438046));
#575=CARTESIAN_POINT('',(-3.74282558114153E-013,-2.52242671194836E-013,24.3638730000075));
#576=VECTOR('',#676,1.0);
#577=CARTESIAN_POINT('',(-2.20000240000006,-6.30606677987089E-014,6.42760588155374));
#578=VECTOR('',#677,1.0);
#579=CARTESIAN_POINT('',(2.19999999999992,-9.59232693276135E-014,9.57370696438048));
#580=VECTOR('',#678,1.0);
#582=CARTESIAN_POINT('',(-3.74383160673899E-013,42.7499999999994,21.9000000000012));
#583=AXIS2_PLACEMENT_3D('',#679,#680,#681);
#584=CARTESIAN_POINT('',(1.09999999999979,42.7499999999994,21.9000000000012));
#585=VECTOR('',#682,1.0);
#587=CARTESIAN_POINT('',(-3.74282558114153E-013,44.7999999999993,30.599999999999));
#588=CARTESIAN_POINT('',(-3.12648932667985E-013,44.7999999999993,30.599999999999));
#589=VECTOR('',#683,1.0);
#590=CARTESIAN_POINT('',(-3.74282558114153E-013,35.5999999999973,39.800000000003));
#591=CARTESIAN_POINT('',(-3.74282558114153E-013,51.036126999989,24.363873000008));
#592=VECTOR('',#684,1.0);
#593=CARTESIAN_POINT('',(-4.09852366592227E-013,35.5999999999973,39.800000000003));
#594=VECTOR('',#685,1.0);
#596=CARTESIAN_POINT('',(-3.74282558114153E-013,44.7999999999993,29.4000000000035));
#597=CARTESIAN_POINT('',(-2.99970223895311E-013,44.7999999999993,29.4000000000035));
#598=VECTOR('',#686,1.0);
#599=CARTESIAN_POINT('',(-3.74282558114153E-013,44.7999999999994,24.3638730000079));
#600=VECTOR('',#687,1.0);
#602=CARTESIAN_POINT('',(-3.06421554796544E-013,0.840408061570826,-2.34479102800833E-013));
#603=CARTESIAN_POINT('',(-3.74282558114154E-013,41.9906041739489,1.98951966012828E-013));
#604=VECTOR('',#688,1.0);
#605=CARTESIAN_POINT('',(-2.20000239999999,0.840408061570826,-2.55795384873636E-013));
#606=VECTOR('',#689,1.0);
#608=CARTESIAN_POINT('',(-3.74269908847467E-013,42.7499999999993,26.4722965861822));
#609=CARTESIAN_POINT('',(-2.69037308098026E-013,42.7499999999993,26.4722965861822));
#610=VECTOR('',#690,1.0);
#611=CARTESIAN_POINT('',(-3.74282558114153E-013,41.2736659112209,24.3638730000079));
#612=VECTOR('',#691,1.0);
#614=AXIS2_PLACEMENT_3D('',#692,#693,#694);
#616=CARTESIAN_POINT('',(-3.74383160673899E-013,3.24999999999936,21.9000000000008));
#617=AXIS2_PLACEMENT_3D('',#695,#696,#697);
#618=CARTESIAN_POINT('',(-3.74269908847465E-013,3.24999999999932,26.4722965861817));
#619=CARTESIAN_POINT('',(-2.57418708618893E-013,3.24999999999934,24.3638730000075));
#620=VECTOR('',#698,1.0);
#621=CARTESIAN_POINT('',(-3.74252344397179E-013,1.19999999999928,29.4000000000031));
#622=CARTESIAN_POINT('',(-2.57418708618893E-013,4.72633408877775,24.3638730000075));
#623=VECTOR('',#699,1.0);
#624=CARTESIAN_POINT('',(-3.74569240173317E-013,1.19999999999927,30.5999999999986));
#625=CARTESIAN_POINT('',(-2.57418708618893E-013,1.19999999999934,24.3638730000075));
#626=VECTOR('',#700,1.0);
#627=CARTESIAN_POINT('',(-3.74282558114153E-013,10.4000000000011,39.8000000000028));
#628=CARTESIAN_POINT('',(-3.74282558114153E-013,-5.03612699999034,24.3638730000074));
#629=VECTOR('',#701,1.0);
#630=CARTESIAN_POINT('',(-3.74282558114153E-013,41.9906041739485,39.8000000000031));
#631=VECTOR('',#702,1.0);
#632=CARTESIAN_POINT('',(-3.74282558114153E-013,42.7499999999993,24.3638730000079));
#633=VECTOR('',#703,1.0);
#636=CARTESIAN_POINT('',(1.09999999999979,3.24999999999936,21.9000000000008));
#637=VECTOR('',#704,1.0);
#639=CARTESIAN_POINT('',(-2.99970223895311E-013,1.19999999999928,29.4000000000031));
#640=VECTOR('',#705,1.0);
#641=CARTESIAN_POINT('',(-2.69037308098026E-013,3.24999999999932,26.4722965861818));
#642=VECTOR('',#706,1.0);
#644=CARTESIAN_POINT('',(-4.09852366592227E-013,10.4000000000011,39.8000000000028));
#645=VECTOR('',#707,1.0);
#646=CARTESIAN_POINT('',(-3.12648932667985E-013,1.19999999999927,30.5999999999986));
#647=VECTOR('',#708,1.0);
#652=DIRECTION('',(0.0,-1.0,-1.05655906439346E-014));
#653=DIRECTION('',(-1.05655906439346E-014,-1.05655906439346E-014,1.0));
#654=CARTESIAN_POINT('',(2.19999999999979,67.7499999999994,21.9000000000015));
#655=DIRECTION('',(-1.0,1.11631705655199E-028,-1.05655906439346E-014));
#656=DIRECTION('',(-6.02670443536817E-043,-1.0,-1.05655906439346E-014));
#657=DIRECTION('',(-1.05655906439346E-014,-1.05655906439346E-014,1.0));
#658=DIRECTION('',(-8.65482517509968E-015,0.573576436351037,0.819152044288998));
#659=DIRECTION('',(-1.05655906439346E-014,-1.05655906439346E-014,1.0));
#660=DIRECTION('',(-7.47100079156816E-015,-0.707106781186473,0.707106781186622));
#661=DIRECTION('',(1.70209354362047E-042,1.0,1.05655906439344E-014));
#662=DIRECTION('',(-7.47100079156816E-015,0.707106781186458,0.707106781186637));
#663=DIRECTION('',(-1.05655906439346E-014,-1.05655906439346E-014,1.0));
#664=DIRECTION('',(-8.65482517509968E-015,-0.573576436351055,0.819152044288986));
#665=DIRECTION('',(-1.05655906439346E-014,-1.05655906439346E-014,1.0));
#666=CARTESIAN_POINT('',(2.19999999999979,-21.7500000000006,21.9000000000005));
#667=DIRECTION('',(1.0,-1.11631705655199E-028,1.05655906439346E-014));
#668=DIRECTION('',(6.02670443536817E-043,1.0,1.05655906439346E-014));
#669=DIRECTION('',(1.05655906439346E-014,1.0537835068319E-014,-1.0));
#670=CARTESIAN_POINT('',(2.19999999999995,24.9999999999999,6.42760588155404));
#671=DIRECTION('',(-1.0,1.1179862966537E-028,-1.05655906439346E-014));
#672=DIRECTION('',(-1.28762159446387E-015,-0.992546151641323,0.121869343405137));
#673=DIRECTION('',(-1.0,1.11631705655199E-028,-1.05655906439346E-014));
#674=DIRECTION('',(0.0,-1.05655906439346E-014,1.0));
#675=DIRECTION('',(1.0,-1.11631705655199E-028,1.05655906439346E-014));
#676=DIRECTION('',(0.0,-1.0537835068319E-014,1.0));
#677=DIRECTION('',(1.0,-1.11631705655199E-028,1.05655906439346E-014));
#678=DIRECTION('',(-1.0,1.11631705655199E-028,-1.05655906439346E-014));
#679=CARTESIAN_POINT('',(-3.74383160673899E-013,67.7499999999994,21.9000000000015));
#680=DIRECTION('',(-1.0,1.11631705655199E-028,-1.05655906439346E-014));
#681=DIRECTION('',(-6.02670443536817E-043,-1.0,-1.05655906439346E-014));
#682=DIRECTION('',(-1.0,1.11631705655199E-028,-1.05655906439346E-014));
#683=DIRECTION('',(1.0,-1.11631705655199E-028,1.05655906439346E-014));
#684=DIRECTION('',(-3.25065265796183E-017,-0.707106781186473,0.707106781186622));
#685=DIRECTION('',(1.0,1.05655906439322E-014,1.12018248541384E-028));
#686=DIRECTION('',(1.0,-1.11631705655199E-028,1.05655906439346E-014));
#687=DIRECTION('',(0.0,-1.05655906439346E-014,1.0));
#688=DIRECTION('',(1.70209354362047E-042,-1.0,-1.05655906439346E-014));
#689=DIRECTION('',(-1.0,1.11631705655199E-028,-1.05655906439346E-014));
#690=DIRECTION('',(-1.0,1.11631705655199E-028,-1.05655906439346E-014));
#691=DIRECTION('',(4.91441697654573E-018,0.573576436351037,0.819152044288998));
#692=CARTESIAN_POINT('',(-3.7433300736159E-013,24.9999999999999,6.42760588155402));
#693=DIRECTION('',(-1.0,1.1179862966537E-028,-1.05655906439346E-014));
#694=DIRECTION('',(-1.28762159446387E-015,-0.992546151641323,0.121869343405137));
#695=CARTESIAN_POINT('',(-3.74383160673899E-013,-21.7500000000006,21.9000000000005));
#696=DIRECTION('',(1.0,-1.11631705655199E-028,1.05655906439346E-014));
#697=DIRECTION('',(6.02670443536817E-043,1.0,1.05655906439346E-014));
#698=DIRECTION('',(1.05655906439346E-014,1.05655906439346E-014,-1.0));
#699=DIRECTION('',(8.65482517509968E-015,0.573576436351055,-0.819152044288986));
#700=DIRECTION('',(1.05655906439346E-014,1.05655906439346E-014,-1.0));
#701=DIRECTION('',(-3.25065265796183E-017,0.707106781186458,0.707106781186637));
#702=DIRECTION('',(1.69088315590587E-042,-1.0,-1.05655906439348E-014));
#703=DIRECTION('',(0.0,-1.05655906439346E-014,1.0));
#704=DIRECTION('',(-1.0,1.11631705655199E-028,-1.05655906439346E-014));
#705=DIRECTION('',(-1.0,1.11631705655199E-028,-1.05655906439346E-014));
#706=DIRECTION('',(1.0,-1.11631705655199E-028,1.05655906439346E-014));
#707=DIRECTION('',(-1.0,1.05655906439322E-014,1.12018248541384E-028));
#708=DIRECTION('',(-1.0,1.11631705655199E-028,-1.05655906439346E-014));
ENDSEC;
END-ISO-10303-21;

