ISO-10303-21;
HEADER;
FILE_DESCRIPTION(('STEP AP214'),'1');
FILE_NAME('cctmp_78910FCB-3236-4B09-B00A-70EDE0683832_2023_07_24_21_56_38_0742..stp','2023-07-24T19:56:38',('SIEMENS A&D'),('CADClick - www.CADClick.com'),'Spatial InterOp 3D postprocessed',' ','unknown authorization');
FILE_SCHEMA(('AUTOMOTIVE_DESIGN'));
ENDSEC;
DATA;
#1=MECHANICAL_DESIGN_GEOMETRIC_PRESENTATION_REPRESENTATION(' ',(#10,#11,#12,#13,#14,#15,#16,#17,#18,#19,#20,#21,#22),#6);
#2=PRODUCT_DEFINITION_CONTEXT('',#23,'design');
#3=APPLICATION_PROTOCOL_DEFINITION('INTERNATIONAL STANDARD','automotive_design',1994,#23);
#4=PRODUCT_CATEGORY_RELATIONSHIP('NONE','NONE',#24,#25);
#5=SHAPE_DEFINITION_REPRESENTATION(#26,#27);
#6= (GEOMETRIC_REPRESENTATION_CONTEXT(3)GLOBAL_UNCERTAINTY_ASSIGNED_CONTEXT((#30))GLOBAL_UNIT_ASSIGNED_CONTEXT((#32,#33,#34))REPRESENTATION_CONTEXT('NONE','WORKSPACE'));
#10=STYLED_ITEM('',(#36),#37);
#11=STYLED_ITEM('',(#38),#39);
#12=STYLED_ITEM('',(#40),#41);
#13=STYLED_ITEM('',(#42),#43);
#14=STYLED_ITEM('',(#44),#45);
#15=STYLED_ITEM('',(#46),#47);
#16=STYLED_ITEM('',(#48),#49);
#17=STYLED_ITEM('',(#50),#51);
#18=STYLED_ITEM('',(#52),#53);
#19=STYLED_ITEM('',(#54),#55);
#20=STYLED_ITEM('',(#56),#57);
#21=STYLED_ITEM('',(#58),#59);
#22=STYLED_ITEM('',(#60),#61);
#23=APPLICATION_CONTEXT(' ');
#24=PRODUCT_CATEGORY('part','NONE');
#25=PRODUCT_RELATED_PRODUCT_CATEGORY('detail',' ',(#62));
#26=PRODUCT_DEFINITION_SHAPE('NONE','NONE',#63);
#27=ADVANCED_BREP_SHAPE_REPRESENTATION('2023_07_24_21_56_38_0742',(#61,#64),#6);
#30=UNCERTAINTY_MEASURE_WITH_UNIT(LENGTH_MEASURE(1.0E-006),#32,'','');
#32= (CONVERSION_BASED_UNIT('MILLIMETRE',#67)LENGTH_UNIT()NAMED_UNIT(#70));
#33= (NAMED_UNIT(#72)PLANE_ANGLE_UNIT()SI_UNIT($,.RADIAN.));
#34= (NAMED_UNIT(#72)SOLID_ANGLE_UNIT()SI_UNIT($,.STERADIAN.));
#36=PRESENTATION_STYLE_ASSIGNMENT((#78));
#37=ADVANCED_FACE('',(#79),#80,.F.);
#38=PRESENTATION_STYLE_ASSIGNMENT((#81));
#39=ADVANCED_FACE('',(#82),#83,.F.);
#40=PRESENTATION_STYLE_ASSIGNMENT((#84));
#41=ADVANCED_FACE('',(#85,#86),#87,.T.);
#42=PRESENTATION_STYLE_ASSIGNMENT((#88));
#43=ADVANCED_FACE('',(#89,#90),#91,.T.);
#44=PRESENTATION_STYLE_ASSIGNMENT((#92));
#45=ADVANCED_FACE('',(#93),#94,.T.);
#46=PRESENTATION_STYLE_ASSIGNMENT((#95));
#47=ADVANCED_FACE('',(#96,#97),#98,.F.);
#48=PRESENTATION_STYLE_ASSIGNMENT((#99));
#49=ADVANCED_FACE('',(#100),#101,.F.);
#50=PRESENTATION_STYLE_ASSIGNMENT((#102));
#51=ADVANCED_FACE('',(#103,#104),#105,.T.);
#52=PRESENTATION_STYLE_ASSIGNMENT((#106));
#53=ADVANCED_FACE('',(#107),#108,.F.);
#54=PRESENTATION_STYLE_ASSIGNMENT((#109));
#55=ADVANCED_FACE('',(#110),#111,.F.);
#56=PRESENTATION_STYLE_ASSIGNMENT((#112));
#57=ADVANCED_FACE('',(#113),#114,.F.);
#58=PRESENTATION_STYLE_ASSIGNMENT((#115));
#59=ADVANCED_FACE('',(#116),#117,.T.);
#60=PRESENTATION_STYLE_ASSIGNMENT((#118));
#61=MANIFOLD_SOLID_BREP('2023_07_24_21_56_38_0742',#119);
#62=PRODUCT('2023_07_24_21_56_38_0742','','PART--DESC',(#120));
#63=PRODUCT_DEFINITION('','NONE',#121,#2);
#64=AXIS2_PLACEMENT_3D('',#122,#123,#124);
#67=LENGTH_MEASURE_WITH_UNIT(LENGTH_MEASURE(1.0),#125);
#70=DIMENSIONAL_EXPONENTS(1.0,0.0,0.0,0.0,0.0,0.0,0.0);
#72=DIMENSIONAL_EXPONENTS(0.0,0.0,0.0,0.0,0.0,0.0,0.0);
#78=SURFACE_STYLE_USAGE(.BOTH.,#126);
#79=FACE_OUTER_BOUND('',#127,.T.);
#80=CYLINDRICAL_SURFACE('',#128,2.0875);
#81=SURFACE_STYLE_USAGE(.BOTH.,#126);
#82=FACE_OUTER_BOUND('',#130,.T.);
#83=CYLINDRICAL_SURFACE('',#131,1.62);
#84=SURFACE_STYLE_USAGE(.BOTH.,#126);
#85=FACE_OUTER_BOUND('',#133,.T.);
#86=FACE_BOUND('',#134,.T.);
#87=PLANE('',#135);
#88=SURFACE_STYLE_USAGE(.BOTH.,#126);
#89=FACE_OUTER_BOUND('',#137,.T.);
#90=FACE_BOUND('',#138,.T.);
#91=PLANE('',#139);
#92=SURFACE_STYLE_USAGE(.BOTH.,#126);
#93=FACE_OUTER_BOUND('',#141,.T.);
#94=CONICAL_SURFACE('',#142,2.5125,0.00727259905240198);
#95=SURFACE_STYLE_USAGE(.BOTH.,#126);
#96=FACE_OUTER_BOUND('',#144,.T.);
#97=FACE_BOUND('',#145,.T.);
#98=PLANE('',#146);
#99=SURFACE_STYLE_USAGE(.BOTH.,#126);
#100=FACE_OUTER_BOUND('',#148,.T.);
#101=CYLINDRICAL_SURFACE('',#149,1.5375);
#102=SURFACE_STYLE_USAGE(.BOTH.,#126);
#103=FACE_OUTER_BOUND('',#151,.T.);
#104=FACE_BOUND('',#152,.T.);
#105=PLANE('',#153);
#106=SURFACE_STYLE_USAGE(.BOTH.,#126);
#107=FACE_OUTER_BOUND('',#155,.T.);
#108=CYLINDRICAL_SURFACE('',#156,1.62);
#109=SURFACE_STYLE_USAGE(.BOTH.,#126);
#110=FACE_OUTER_BOUND('',#158,.T.);
#111=CYLINDRICAL_SURFACE('',#159,2.0875);
#112=SURFACE_STYLE_USAGE(.BOTH.,#126);
#113=FACE_OUTER_BOUND('',#161,.T.);
#114=CYLINDRICAL_SURFACE('',#162,1.5375);
#115=SURFACE_STYLE_USAGE(.BOTH.,#126);
#116=FACE_OUTER_BOUND('',#164,.T.);
#117=CONICAL_SURFACE('',#165,2.5125,0.00727259905240198);
#118=SURFACE_STYLE_USAGE(.BOTH.,#126);
#119=CLOSED_SHELL('',(#37,#39,#41,#43,#45,#47,#49,#51,#53,#55,#57,#59));
#120=PRODUCT_CONTEXT('',#23,'mechanical');
#121=PRODUCT_DEFINITION_FORMATION_WITH_SPECIFIED_SOURCE(' ','NONE',#62,.NOT_KNOWN.);
#122=CARTESIAN_POINT('',(0.0,0.0,0.0));
#123=DIRECTION('',(0.0,0.0,1.0));
#124=DIRECTION('',(1.0,0.0,0.0));
#125= (NAMED_UNIT(#70)LENGTH_UNIT()SI_UNIT(.MILLI.,.METRE.));
#126=SURFACE_SIDE_STYLE('',(#168));
#127=EDGE_LOOP('',(#169,#170,#171,#172,#173,#174));
#128=AXIS2_PLACEMENT_3D('',#175,#176,#177);
#130=EDGE_LOOP('',(#179,#180,#181,#182));
#131=AXIS2_PLACEMENT_3D('',#183,#184,#185);
#133=EDGE_LOOP('',(#187,#188,#189));
#134=EDGE_LOOP('',(#190,#191));
#135=AXIS2_PLACEMENT_3D('',#192,#193,#194);
#137=EDGE_LOOP('',(#196,#197,#198));
#138=EDGE_LOOP('',(#199,#200));
#139=AXIS2_PLACEMENT_3D('',#201,#202,#203);
#141=EDGE_LOOP('',(#205,#206,#207,#208,#209));
#142=AXIS2_PLACEMENT_3D('',#210,#211,#212);
#144=EDGE_LOOP('',(#214,#215,#216));
#145=EDGE_LOOP('',(#217,#218,#219));
#146=AXIS2_PLACEMENT_3D('',#220,#221,#222);
#148=EDGE_LOOP('',(#224,#225,#226,#227));
#149=AXIS2_PLACEMENT_3D('',#228,#229,#230);
#151=EDGE_LOOP('',(#232,#233));
#152=EDGE_LOOP('',(#234,#235));
#153=AXIS2_PLACEMENT_3D('',#236,#237,#238);
#155=EDGE_LOOP('',(#240,#241,#242,#243));
#156=AXIS2_PLACEMENT_3D('',#244,#245,#246);
#158=EDGE_LOOP('',(#248,#249,#250,#251));
#159=AXIS2_PLACEMENT_3D('',#252,#253,#254);
#161=EDGE_LOOP('',(#256,#257,#258,#259));
#162=AXIS2_PLACEMENT_3D('',#260,#261,#262);
#164=EDGE_LOOP('',(#264,#265,#266,#267,#268));
#165=AXIS2_PLACEMENT_3D('',#269,#270,#271);
#168=SURFACE_STYLE_FILL_AREA(#273);
#169=ORIENTED_EDGE('',*,*,#274,.F.);
#170=ORIENTED_EDGE('',*,*,#275,.T.);
#171=ORIENTED_EDGE('',*,*,#276,.T.);
#172=ORIENTED_EDGE('',*,*,#277,.T.);
#173=ORIENTED_EDGE('',*,*,#278,.F.);
#174=ORIENTED_EDGE('',*,*,#279,.F.);
#175=CARTESIAN_POINT('',(2.4933242234,2.49100521419998,-2.98427949019242E-013));
#176=DIRECTION('',(-2.7755575615629E-017,2.74122250617291E-017,1.0));
#177=DIRECTION('',(1.0,-1.84817325551568E-015,2.7755575615629E-017));
#179=ORIENTED_EDGE('',*,*,#281,.T.);
#180=ORIENTED_EDGE('',*,*,#282,.F.);
#181=ORIENTED_EDGE('',*,*,#283,.F.);
#182=ORIENTED_EDGE('',*,*,#284,.T.);
#183=CARTESIAN_POINT('',(2.4933242234,2.49100521419998,-2.98427949019242E-013));
#184=DIRECTION('',(-2.77555756156289E-017,2.74122250617295E-017,1.0));
#185=DIRECTION('',(1.0,-1.84817325551568E-015,2.7755575615629E-017));
#187=ORIENTED_EDGE('',*,*,#286,.F.);
#188=ORIENTED_EDGE('',*,*,#287,.F.);
#189=ORIENTED_EDGE('',*,*,#288,.F.);
#190=ORIENTED_EDGE('',*,*,#289,.T.);
#191=ORIENTED_EDGE('',*,*,#290,.T.);
#192=CARTESIAN_POINT('',(3.56155993286619,2.93348293287211,27.4999999999997));
#193=DIRECTION('',(-3.92058863470931E-017,2.55557704473121E-017,1.0));
#194=DIRECTION('',(1.0,5.38542291592061E-017,3.92058863470931E-017));
#196=ORIENTED_EDGE('',*,*,#274,.T.);
#197=ORIENTED_EDGE('',*,*,#279,.T.);
#198=ORIENTED_EDGE('',*,*,#292,.T.);
#199=ORIENTED_EDGE('',*,*,#281,.F.);
#200=ORIENTED_EDGE('',*,*,#293,.F.);
#201=CARTESIAN_POINT('',(1.9037348059405,3.26699975409201,1.39999999999971));
#202=DIRECTION('',(2.77555756156289E-017,-2.08166817117216E-017,-1.0));
#203=DIRECTION('',(-1.0,-3.92058863470931E-017,-2.77555756156289E-017));
#205=ORIENTED_EDGE('',*,*,#286,.T.);
#206=ORIENTED_EDGE('',*,*,#288,.T.);
#207=ORIENTED_EDGE('',*,*,#295,.T.);
#208=ORIENTED_EDGE('',*,*,#296,.F.);
#209=ORIENTED_EDGE('',*,*,#297,.F.);
#210=CARTESIAN_POINT('',(2.4933242234,2.49100521419998,-2.98427949019242E-013));
#211=DIRECTION('',(4.32057196619523E-017,-4.06084052500917E-017,-1.0));
#212=DIRECTION('',(0.991444861373811,0.13052619222005,3.75356282313769E-017));
#214=ORIENTED_EDGE('',*,*,#299,.T.);
#215=ORIENTED_EDGE('',*,*,#300,.T.);
#216=ORIENTED_EDGE('',*,*,#296,.T.);
#217=ORIENTED_EDGE('',*,*,#276,.F.);
#218=ORIENTED_EDGE('',*,*,#301,.F.);
#219=ORIENTED_EDGE('',*,*,#277,.F.);
#220=CARTESIAN_POINT('',(3.4899743571409,3.25576175939219,-2.98427949019242E-013));
#221=DIRECTION('',(-3.92058863470931E-017,2.51938482398112E-017,1.0));
#222=DIRECTION('',(1.0,4.23588727134759E-017,3.92058863470931E-017));
#224=ORIENTED_EDGE('',*,*,#289,.F.);
#225=ORIENTED_EDGE('',*,*,#303,.T.);
#226=ORIENTED_EDGE('',*,*,#304,.T.);
#227=ORIENTED_EDGE('',*,*,#305,.F.);
#228=CARTESIAN_POINT('',(2.49332422339999,2.49100521419999,30.2500023999997));
#229=DIRECTION('',(-2.7755575615629E-017,2.74122250617295E-017,1.0));
#230=DIRECTION('',(1.0,-1.84817325551568E-015,2.7755575615629E-017));
#232=ORIENTED_EDGE('',*,*,#283,.T.);
#233=ORIENTED_EDGE('',*,*,#307,.T.);
#234=ORIENTED_EDGE('',*,*,#304,.F.);
#235=ORIENTED_EDGE('',*,*,#308,.F.);
#236=CARTESIAN_POINT('',(1.9037348059405,3.26699975409201,4.6999999999997));
#237=DIRECTION('',(2.77555756156289E-017,-2.08166817117216E-017,-1.0));
#238=DIRECTION('',(-1.0,-3.92058863470931E-017,-2.77555756156289E-017));
#240=ORIENTED_EDGE('',*,*,#282,.T.);
#241=ORIENTED_EDGE('',*,*,#293,.T.);
#242=ORIENTED_EDGE('',*,*,#284,.F.);
#243=ORIENTED_EDGE('',*,*,#307,.F.);
#244=CARTESIAN_POINT('',(2.4933242234,2.49100521419998,-2.98427949019242E-013));
#245=DIRECTION('',(-2.77555756156289E-017,2.74122250617295E-017,1.0));
#246=DIRECTION('',(1.0,-1.84817325551568E-015,2.7755575615629E-017));
#248=ORIENTED_EDGE('',*,*,#278,.T.);
#249=ORIENTED_EDGE('',*,*,#301,.T.);
#250=ORIENTED_EDGE('',*,*,#275,.F.);
#251=ORIENTED_EDGE('',*,*,#292,.F.);
#252=CARTESIAN_POINT('',(2.4933242234,2.49100521419998,-2.98427949019242E-013));
#253=DIRECTION('',(-2.7755575615629E-017,2.74122250617291E-017,1.0));
#254=DIRECTION('',(1.0,-1.84817325551568E-015,2.7755575615629E-017));
#256=ORIENTED_EDGE('',*,*,#305,.T.);
#257=ORIENTED_EDGE('',*,*,#308,.T.);
#258=ORIENTED_EDGE('',*,*,#303,.F.);
#259=ORIENTED_EDGE('',*,*,#290,.F.);
#260=CARTESIAN_POINT('',(2.49332422339999,2.49100521419999,30.2500023999997));
#261=DIRECTION('',(-2.7755575615629E-017,2.74122250617295E-017,1.0));
#262=DIRECTION('',(1.0,-1.84817325551568E-015,2.7755575615629E-017));
#264=ORIENTED_EDGE('',*,*,#299,.F.);
#265=ORIENTED_EDGE('',*,*,#295,.F.);
#266=ORIENTED_EDGE('',*,*,#287,.T.);
#267=ORIENTED_EDGE('',*,*,#297,.T.);
#268=ORIENTED_EDGE('',*,*,#300,.F.);
#269=CARTESIAN_POINT('',(2.4933242234,2.49100521419998,-2.98427949019242E-013));
#270=DIRECTION('',(4.32057196619523E-017,-4.06084052500917E-017,-1.0));
#271=DIRECTION('',(0.991444861373811,0.13052619222005,3.75356282313769E-017));
#273=FILL_AREA_STYLE('',(#314));
#274=EDGE_CURVE('',#315,#316,#317,.T.);
#275=EDGE_CURVE('',#315,#318,#319,.T.);
#276=EDGE_CURVE('',#318,#320,#321,.T.);
#277=EDGE_CURVE('',#320,#322,#323,.T.);
#278=EDGE_CURVE('',#324,#322,#325,.T.);
#279=EDGE_CURVE('',#316,#324,#326,.T.);
#281=EDGE_CURVE('',#328,#329,#330,.T.);
#282=EDGE_CURVE('',#331,#329,#332,.T.);
#283=EDGE_CURVE('',#333,#331,#334,.T.);
#284=EDGE_CURVE('',#333,#328,#335,.T.);
#286=EDGE_CURVE('',#337,#338,#339,.T.);
#287=EDGE_CURVE('',#340,#337,#341,.T.);
#288=EDGE_CURVE('',#338,#340,#342,.T.);
#289=EDGE_CURVE('',#343,#344,#345,.T.);
#290=EDGE_CURVE('',#344,#343,#346,.T.);
#292=EDGE_CURVE('',#324,#315,#348,.T.);
#293=EDGE_CURVE('',#329,#328,#349,.T.);
#295=EDGE_CURVE('',#340,#351,#352,.T.);
#296=EDGE_CURVE('',#353,#351,#354,.T.);
#297=EDGE_CURVE('',#337,#353,#355,.T.);
#299=EDGE_CURVE('',#351,#357,#358,.T.);
#300=EDGE_CURVE('',#357,#353,#359,.T.);
#301=EDGE_CURVE('',#322,#318,#360,.T.);
#303=EDGE_CURVE('',#343,#362,#363,.T.);
#304=EDGE_CURVE('',#362,#364,#365,.T.);
#305=EDGE_CURVE('',#344,#364,#366,.T.);
#307=EDGE_CURVE('',#331,#333,#368,.T.);
#308=EDGE_CURVE('',#364,#362,#369,.T.);
#314=FILL_AREA_STYLE_COLOUR('',#375);
#315=VERTEX_POINT('',#376);
#316=VERTEX_POINT('',#377);
#317=CIRCLE('',#378,2.0875);
#318=VERTEX_POINT('',#379);
#319=LINE('',#380,#381);
#320=VERTEX_POINT('',#382);
#321=CIRCLE('',#383,2.0875);
#322=VERTEX_POINT('',#384);
#323=CIRCLE('',#385,2.0875);
#324=VERTEX_POINT('',#386);
#325=LINE('',#387,#388);
#326=CIRCLE('',#389,2.0875);
#328=VERTEX_POINT('',#391);
#329=VERTEX_POINT('',#392);
#330=CIRCLE('',#393,1.62);
#331=VERTEX_POINT('',#394);
#332=LINE('',#395,#396);
#333=VERTEX_POINT('',#397);
#334=CIRCLE('',#398,1.62);
#335=LINE('',#399,#400);
#337=VERTEX_POINT('',#402);
#338=VERTEX_POINT('',#403);
#339=CIRCLE('',#404,2.3125);
#340=VERTEX_POINT('',#405);
#341=CIRCLE('',#406,2.3125);
#342=CIRCLE('',#407,2.3125);
#343=VERTEX_POINT('',#408);
#344=VERTEX_POINT('',#409);
#345=CIRCLE('',#410,1.5375);
#346=CIRCLE('',#411,1.5375);
#348=CIRCLE('',#413,2.0875);
#349=CIRCLE('',#414,1.62);
#351=VERTEX_POINT('',#416);
#352=LINE('',#417,#418);
#353=VERTEX_POINT('',#419);
#354=CIRCLE('',#420,2.5125);
#355=LINE('',#421,#422);
#357=VERTEX_POINT('',#424);
#358=CIRCLE('',#425,2.5125);
#359=CIRCLE('',#426,2.5125);
#360=CIRCLE('',#427,2.0875);
#362=VERTEX_POINT('',#429);
#363=LINE('',#430,#431);
#364=VERTEX_POINT('',#432);
#365=CIRCLE('',#433,1.5375);
#366=LINE('',#434,#435);
#368=CIRCLE('',#437,1.62);
#369=CIRCLE('',#438,1.5375);
#375=COLOUR_RGB('',0.541176497936249,0.0705882385373116,0.0784313753247261);
#376=CARTESIAN_POINT('',(0.405824223399997,2.49100521419998,1.39999999999971));
#377=CARTESIAN_POINT('',(0.740476917330597,3.62466414509822,1.39999999999971));
#378=AXIS2_PLACEMENT_3D('',#444,#445,#446);
#379=CARTESIAN_POINT('',(0.405824223399997,2.49100521419998,-2.98427949019242E-013));
#380=CARTESIAN_POINT('',(0.405824223399997,2.49100521419998,-2.98427949019242E-013));
#381=VECTOR('',#447,1.0);
#382=CARTESIAN_POINT('',(2.9451419174958,4.52902312906283,-2.98427949019242E-013));
#383=AXIS2_PLACEMENT_3D('',#448,#449,#450);
#384=CARTESIAN_POINT('',(4.5808242234,2.49100521419997,-2.98427949019242E-013));
#385=AXIS2_PLACEMENT_3D('',#451,#452,#453);
#386=CARTESIAN_POINT('',(4.5808242234,2.49100521419997,1.39999999999971));
#387=CARTESIAN_POINT('',(4.5808242234,2.49100521419997,-2.98427949019242E-013));
#388=VECTOR('',#454,1.0);
#389=AXIS2_PLACEMENT_3D('',#455,#456,#457);
#391=CARTESIAN_POINT('',(0.873324223399998,2.49100521419999,1.39999999999971));
#392=CARTESIAN_POINT('',(4.1133242234,2.49100521419998,1.39999999999971));
#393=AXIS2_PLACEMENT_3D('',#458,#459,#460);
#394=CARTESIAN_POINT('',(4.1133242234,2.49100521419998,4.6999999999997));
#395=CARTESIAN_POINT('',(4.1133242234,2.49100521419998,-2.98427949019242E-013));
#396=VECTOR('',#461,1.0);
#397=CARTESIAN_POINT('',(0.873324223399998,2.49100521419999,4.6999999999997));
#398=AXIS2_PLACEMENT_3D('',#462,#463,#464);
#399=CARTESIAN_POINT('',(0.873324223399998,2.49100521419999,-2.98427949019242E-013));
#400=VECTOR('',#465,1.0);
#402=CARTESIAN_POINT('',(4.78604046532689,2.79284703370885,27.4999999999997));
#403=CARTESIAN_POINT('',(0.665408812243791,1.07453724786347,27.4999999999997));
#404=AXIS2_PLACEMENT_3D('',#466,#467,#468);
#405=CARTESIAN_POINT('',(0.200607981473092,2.18916339469112,27.4999999999997));
#406=AXIS2_PLACEMENT_3D('',#469,#470,#471);
#407=AXIS2_PLACEMENT_3D('',#472,#473,#474);
#408=CARTESIAN_POINT('',(0.955824223399994,2.49100521419999,27.4999999999997));
#409=CARTESIAN_POINT('',(4.03082422339999,2.49100521419999,27.4999999999997));
#410=AXIS2_PLACEMENT_3D('',#475,#476,#477);
#411=AXIS2_PLACEMENT_3D('',#478,#479,#480);
#413=AXIS2_PLACEMENT_3D('',#481,#482,#483);
#414=AXIS2_PLACEMENT_3D('',#484,#485,#486);
#416=CARTESIAN_POINT('',(0.00231900919829633,2.16305815624711,-2.98427949019242E-013));
#417=CARTESIAN_POINT('',(0.00231900919829633,2.16305815624711,-2.98427949019242E-013));
#418=VECTOR('',#487,345.477886242828);
#419=CARTESIAN_POINT('',(4.9843294376017,2.81895227215286,-2.98427949019242E-013));
#420=AXIS2_PLACEMENT_3D('',#488,#489,#490);
#421=CARTESIAN_POINT('',(4.9843294376017,2.81895227215286,-2.98427949019242E-013));
#422=VECTOR('',#491,345.477886242828);
#424=CARTESIAN_POINT('',(4.9462679412888,3.03480974421947,-2.98427949019242E-013));
#425=AXIS2_PLACEMENT_3D('',#492,#493,#494);
#426=AXIS2_PLACEMENT_3D('',#495,#496,#497);
#427=AXIS2_PLACEMENT_3D('',#498,#499,#500);
#429=CARTESIAN_POINT('',(0.955824223400001,2.49100521419999,4.6999999999997));
#430=CARTESIAN_POINT('',(0.955824223399994,2.49100521419999,30.2500023999997));
#431=VECTOR('',#501,1.0);
#432=CARTESIAN_POINT('',(4.0308242234,2.49100521419999,4.6999999999997));
#433=AXIS2_PLACEMENT_3D('',#502,#503,#504);
#434=CARTESIAN_POINT('',(4.03082422339999,2.49100521419999,30.2500023999997));
#435=VECTOR('',#505,1.0);
#437=AXIS2_PLACEMENT_3D('',#506,#507,#508);
#438=AXIS2_PLACEMENT_3D('',#509,#510,#511);
#444=CARTESIAN_POINT('',(2.4933242234,2.49100521419998,1.39999999999971));
#445=DIRECTION('',(2.7755575615629E-017,-2.74122250617295E-017,-1.0));
#446=DIRECTION('',(1.0,-1.84817325551568E-015,2.7755575615629E-017));
#447=DIRECTION('',(3.92058863470933E-017,-2.74122250617291E-017,-1.0));
#448=CARTESIAN_POINT('',(2.4933242234,2.49100521419998,-2.98427949019242E-013));
#449=DIRECTION('',(2.7755575615629E-017,-2.74122250617295E-017,-1.0));
#450=DIRECTION('',(1.0,-1.84817325551568E-015,2.7755575615629E-017));
#451=CARTESIAN_POINT('',(2.4933242234,2.49100521419998,-2.98427949019242E-013));
#452=DIRECTION('',(2.7755575615629E-017,-2.74122250617295E-017,-1.0));
#453=DIRECTION('',(1.0,-1.84817325551568E-015,2.7755575615629E-017));
#454=DIRECTION('',(3.92058863470933E-017,-2.74122250617291E-017,-1.0));
#455=CARTESIAN_POINT('',(2.4933242234,2.49100521419998,1.39999999999971));
#456=DIRECTION('',(2.7755575615629E-017,-2.74122250617295E-017,-1.0));
#457=DIRECTION('',(1.0,-1.84817325551568E-015,2.7755575615629E-017));
#458=CARTESIAN_POINT('',(2.4933242234,2.49100521419998,1.39999999999971));
#459=DIRECTION('',(2.77555756156289E-017,-2.74122250617295E-017,-1.0));
#460=DIRECTION('',(1.0,-1.84817325551568E-015,2.7755575615629E-017));
#461=DIRECTION('',(3.92058863470931E-017,-2.74122250617294E-017,-1.0));
#462=CARTESIAN_POINT('',(2.4933242234,2.49100521419998,4.6999999999997));
#463=DIRECTION('',(2.77555756156289E-017,-2.74122250617295E-017,-1.0));
#464=DIRECTION('',(1.0,-1.84817325551568E-015,2.7755575615629E-017));
#465=DIRECTION('',(3.92058863470931E-017,-2.74122250617294E-017,-1.0));
#466=CARTESIAN_POINT('',(2.49332422339999,2.49100521419998,27.4999999999997));
#467=DIRECTION('',(3.92058863470931E-017,-2.74122250617295E-017,-1.0));
#468=DIRECTION('',(0.608761429008723,-0.793353340291233,4.56146117157481E-017));
#469=CARTESIAN_POINT('',(2.49332422339999,2.49100521419998,27.4999999999997));
#470=DIRECTION('',(3.92058863470931E-017,-2.74122250617295E-017,-1.0));
#471=DIRECTION('',(0.608761429008723,-0.793353340291233,4.56146117157481E-017));
#472=CARTESIAN_POINT('',(2.49332422339999,2.49100521419998,27.4999999999997));
#473=DIRECTION('',(3.92058863470931E-017,-2.74122250617295E-017,-1.0));
#474=DIRECTION('',(0.608761429008723,-0.793353340291233,4.56146117157481E-017));
#475=CARTESIAN_POINT('',(2.49332422339999,2.49100521419998,27.4999999999997));
#476=DIRECTION('',(1.38777878078145E-017,-2.74122250617295E-017,-1.0));
#477=DIRECTION('',(1.0,-1.73715095305316E-015,1.38777878078145E-017));
#478=CARTESIAN_POINT('',(2.49332422339999,2.49100521419998,27.4999999999997));
#479=DIRECTION('',(1.38777878078145E-017,-2.74122250617295E-017,-1.0));
#480=DIRECTION('',(1.0,-1.73715095305316E-015,1.38777878078145E-017));
#481=CARTESIAN_POINT('',(2.4933242234,2.49100521419998,1.39999999999971));
#482=DIRECTION('',(2.7755575615629E-017,-2.74122250617295E-017,-1.0));
#483=DIRECTION('',(1.0,-1.84817325551568E-015,2.7755575615629E-017));
#484=CARTESIAN_POINT('',(2.4933242234,2.49100521419998,1.39999999999971));
#485=DIRECTION('',(2.77555756156289E-017,-2.74122250617295E-017,-1.0));
#486=DIRECTION('',(1.0,-1.84817325551568E-015,2.7755575615629E-017));
#487=DIRECTION('',(-0.00721031739916001,-0.000949256293997305,-0.999973554768071));
#488=CARTESIAN_POINT('',(2.4933242234,2.49100521419998,-2.98427949019242E-013));
#489=DIRECTION('',(1.40006056205915E-017,-2.40938869016941E-017,-1.0));
#490=DIRECTION('',(0.99144486137381,-0.130526192220054,1.70257118117155E-017));
#491=DIRECTION('',(0.00721031739916009,0.000949256293997225,-0.999973554768071));
#492=CARTESIAN_POINT('',(2.4933242234,2.49100521419998,-2.98427949019242E-013));
#493=DIRECTION('',(1.40006056205915E-017,-2.40938869016941E-017,-1.0));
#494=DIRECTION('',(0.99144486137381,-0.130526192220054,1.70257118117155E-017));
#495=CARTESIAN_POINT('',(2.4933242234,2.49100521419998,-2.98427949019242E-013));
#496=DIRECTION('',(1.40006056205915E-017,-2.40938869016941E-017,-1.0));
#497=DIRECTION('',(0.99144486137381,-0.130526192220054,1.70257118117155E-017));
#498=CARTESIAN_POINT('',(2.4933242234,2.49100521419998,-2.98427949019242E-013));
#499=DIRECTION('',(2.7755575615629E-017,-2.74122250617295E-017,-1.0));
#500=DIRECTION('',(1.0,-1.84817325551568E-015,2.7755575615629E-017));
#501=DIRECTION('',(3.92058863470931E-017,-2.74122250617294E-017,-1.0));
#502=CARTESIAN_POINT('',(2.4933242234,2.49100521419998,4.6999999999997));
#503=DIRECTION('',(2.7755575615629E-017,-2.74122250617295E-017,-1.0));
#504=DIRECTION('',(1.0,-1.84817325551568E-015,2.7755575615629E-017));
#505=DIRECTION('',(3.92058863470931E-017,-2.74122250617294E-017,-1.0));
#506=CARTESIAN_POINT('',(2.4933242234,2.49100521419998,4.6999999999997));
#507=DIRECTION('',(2.77555756156289E-017,-2.74122250617295E-017,-1.0));
#508=DIRECTION('',(1.0,-1.84817325551568E-015,2.7755575615629E-017));
#509=CARTESIAN_POINT('',(2.4933242234,2.49100521419998,4.6999999999997));
#510=DIRECTION('',(2.7755575615629E-017,-2.74122250617295E-017,-1.0));
#511=DIRECTION('',(1.0,-1.84817325551568E-015,2.7755575615629E-017));
ENDSEC;
END-ISO-10303-21;

