ISO-10303-21;
HEADER;
FILE_DESCRIPTION(('STEP AP214'),'1');
FILE_NAME('cctmp_6382BA8D-312C-42EF-A7D1-C50A0D01F8C4_2023_07_24_21_56_17_0147..stp','2023-07-24T19:56:17',('SIEMENS A&D'),('CADClick - www.CADClick.com'),'Spatial InterOp 3D postprocessed',' ','unknown authorization');
FILE_SCHEMA(('AUTOMOTIVE_DESIGN'));
ENDSEC;
DATA;
#1=MECHANICAL_DESIGN_GEOMETRIC_PRESENTATION_REPRESENTATION(' ',(#10,#11,#12,#13,#14,#15,#16,#17,#18,#19,#20,#21,#22,#23,#24,#25,#26,#27,#28,#29,#30,#31,#32),#6);
#2=PRODUCT_DEFINITION_CONTEXT('',#33,'design');
#3=APPLICATION_PROTOCOL_DEFINITION('INTERNATIONAL STANDARD','automotive_design',1994,#33);
#4=PRODUCT_CATEGORY_RELATIONSHIP('NONE','NONE',#34,#35);
#5=SHAPE_DEFINITION_REPRESENTATION(#36,#37);
#6= (GEOMETRIC_REPRESENTATION_CONTEXT(3)GLOBAL_UNCERTAINTY_ASSIGNED_CONTEXT((#40))GLOBAL_UNIT_ASSIGNED_CONTEXT((#42,#43,#44))REPRESENTATION_CONTEXT('NONE','WORKSPACE'));
#10=STYLED_ITEM('',(#46),#47);
#11=STYLED_ITEM('',(#48),#49);
#12=STYLED_ITEM('',(#50),#51);
#13=STYLED_ITEM('',(#52),#53);
#14=STYLED_ITEM('',(#54),#55);
#15=STYLED_ITEM('',(#56),#57);
#16=STYLED_ITEM('',(#58),#59);
#17=STYLED_ITEM('',(#60),#61);
#18=STYLED_ITEM('',(#62),#63);
#19=STYLED_ITEM('',(#64),#65);
#20=STYLED_ITEM('',(#66),#67);
#21=STYLED_ITEM('',(#68),#69);
#22=STYLED_ITEM('',(#70),#71);
#23=STYLED_ITEM('',(#72),#73);
#24=STYLED_ITEM('',(#74),#75);
#25=STYLED_ITEM('',(#76),#77);
#26=STYLED_ITEM('',(#78),#79);
#27=STYLED_ITEM('',(#80),#81);
#28=STYLED_ITEM('',(#82),#83);
#29=STYLED_ITEM('',(#84),#85);
#30=STYLED_ITEM('',(#86),#87);
#31=STYLED_ITEM('',(#88),#89);
#32=STYLED_ITEM('',(#90),#91);
#33=APPLICATION_CONTEXT(' ');
#34=PRODUCT_CATEGORY('part','NONE');
#35=PRODUCT_RELATED_PRODUCT_CATEGORY('detail',' ',(#92));
#36=PRODUCT_DEFINITION_SHAPE('NONE','NONE',#93);
#37=ADVANCED_BREP_SHAPE_REPRESENTATION('2023_07_24_21_56_17_0147',(#91,#94),#6);
#40=UNCERTAINTY_MEASURE_WITH_UNIT(LENGTH_MEASURE(1.0E-006),#42,'','');
#42= (CONVERSION_BASED_UNIT('MILLIMETRE',#97)LENGTH_UNIT()NAMED_UNIT(#100));
#43= (NAMED_UNIT(#102)PLANE_ANGLE_UNIT()SI_UNIT($,.RADIAN.));
#44= (NAMED_UNIT(#102)SOLID_ANGLE_UNIT()SI_UNIT($,.STERADIAN.));
#46=PRESENTATION_STYLE_ASSIGNMENT((#108));
#47=ADVANCED_FACE('',(#109),#110,.F.);
#48=PRESENTATION_STYLE_ASSIGNMENT((#111));
#49=ADVANCED_FACE('',(#112),#113,.F.);
#50=PRESENTATION_STYLE_ASSIGNMENT((#114));
#51=ADVANCED_FACE('',(#115),#116,.T.);
#52=PRESENTATION_STYLE_ASSIGNMENT((#117));
#53=ADVANCED_FACE('',(#118,#119,#120),#121,.T.);
#54=PRESENTATION_STYLE_ASSIGNMENT((#122));
#55=ADVANCED_FACE('',(#123),#124,.T.);
#56=PRESENTATION_STYLE_ASSIGNMENT((#125));
#57=ADVANCED_FACE('',(#126),#127,.F.);
#58=PRESENTATION_STYLE_ASSIGNMENT((#128));
#59=ADVANCED_FACE('',(#129),#130,.T.);
#60=PRESENTATION_STYLE_ASSIGNMENT((#131));
#61=ADVANCED_FACE('',(#132),#133,.F.);
#62=PRESENTATION_STYLE_ASSIGNMENT((#134));
#63=ADVANCED_FACE('',(#135),#136,.T.);
#64=PRESENTATION_STYLE_ASSIGNMENT((#137));
#65=ADVANCED_FACE('',(#138),#139,.T.);
#66=PRESENTATION_STYLE_ASSIGNMENT((#140));
#67=ADVANCED_FACE('',(#141),#142,.F.);
#68=PRESENTATION_STYLE_ASSIGNMENT((#143));
#69=ADVANCED_FACE('',(#144),#145,.T.);
#70=PRESENTATION_STYLE_ASSIGNMENT((#146));
#71=ADVANCED_FACE('',(#147,#148),#149,.F.);
#72=PRESENTATION_STYLE_ASSIGNMENT((#150));
#73=ADVANCED_FACE('',(#151),#152,.T.);
#74=PRESENTATION_STYLE_ASSIGNMENT((#153));
#75=ADVANCED_FACE('',(#154,#155),#156,.F.);
#76=PRESENTATION_STYLE_ASSIGNMENT((#157));
#77=ADVANCED_FACE('',(#158),#159,.F.);
#78=PRESENTATION_STYLE_ASSIGNMENT((#160));
#79=ADVANCED_FACE('',(#161),#162,.T.);
#80=PRESENTATION_STYLE_ASSIGNMENT((#163));
#81=ADVANCED_FACE('',(#164),#165,.T.);
#82=PRESENTATION_STYLE_ASSIGNMENT((#166));
#83=ADVANCED_FACE('',(#167),#168,.T.);
#84=PRESENTATION_STYLE_ASSIGNMENT((#169));
#85=ADVANCED_FACE('',(#170),#171,.T.);
#86=PRESENTATION_STYLE_ASSIGNMENT((#172));
#87=ADVANCED_FACE('',(#173),#174,.F.);
#88=PRESENTATION_STYLE_ASSIGNMENT((#175));
#89=ADVANCED_FACE('',(#176),#177,.T.);
#90=PRESENTATION_STYLE_ASSIGNMENT((#178));
#91=MANIFOLD_SOLID_BREP('2023_07_24_21_56_17_0147',#179);
#92=PRODUCT('2023_07_24_21_56_17_0147','','PART--DESC',(#180));
#93=PRODUCT_DEFINITION('','NONE',#181,#2);
#94=AXIS2_PLACEMENT_3D('',#182,#183,#184);
#97=LENGTH_MEASURE_WITH_UNIT(LENGTH_MEASURE(1.0),#185);
#100=DIMENSIONAL_EXPONENTS(1.0,0.0,0.0,0.0,0.0,0.0,0.0);
#102=DIMENSIONAL_EXPONENTS(0.0,0.0,0.0,0.0,0.0,0.0,0.0);
#108=SURFACE_STYLE_USAGE(.BOTH.,#186);
#109=FACE_OUTER_BOUND('',#187,.T.);
#110=CYLINDRICAL_SURFACE('',#188,16.0);
#111=SURFACE_STYLE_USAGE(.BOTH.,#186);
#112=FACE_OUTER_BOUND('',#190,.T.);
#113=CYLINDRICAL_SURFACE('',#191,16.0);
#114=SURFACE_STYLE_USAGE(.BOTH.,#186);
#115=FACE_OUTER_BOUND('',#193,.T.);
#116=PLANE('',#194);
#117=SURFACE_STYLE_USAGE(.BOTH.,#186);
#118=FACE_OUTER_BOUND('',#196,.T.);
#119=FACE_BOUND('',#197,.T.);
#120=FACE_BOUND('',#198,.T.);
#121=PLANE('',#199);
#122=SURFACE_STYLE_USAGE(.BOTH.,#186);
#123=FACE_OUTER_BOUND('',#201,.T.);
#124=PLANE('',#202);
#125=SURFACE_STYLE_USAGE(.BOTH.,#186);
#126=FACE_OUTER_BOUND('',#204,.T.);
#127=CYLINDRICAL_SURFACE('',#205,16.0);
#128=SURFACE_STYLE_USAGE(.BOTH.,#186);
#129=FACE_OUTER_BOUND('',#207,.T.);
#130=PLANE('',#208);
#131=SURFACE_STYLE_USAGE(.BOTH.,#186);
#132=FACE_OUTER_BOUND('',#210,.T.);
#133=CYLINDRICAL_SURFACE('',#211,16.0);
#134=SURFACE_STYLE_USAGE(.BOTH.,#212);
#135=FACE_OUTER_BOUND('',#213,.T.);
#136=CYLINDRICAL_SURFACE('',#214,2.5);
#137=SURFACE_STYLE_USAGE(.BOTH.,#212);
#138=FACE_OUTER_BOUND('',#216,.T.);
#139=CYLINDRICAL_SURFACE('',#217,1.75);
#140=SURFACE_STYLE_USAGE(.BOTH.,#212);
#141=FACE_OUTER_BOUND('',#219,.T.);
#142=PLANE('',#220);
#143=SURFACE_STYLE_USAGE(.BOTH.,#212);
#144=FACE_OUTER_BOUND('',#222,.T.);
#145=CYLINDRICAL_SURFACE('',#223,2.5);
#146=SURFACE_STYLE_USAGE(.BOTH.,#212);
#147=FACE_OUTER_BOUND('',#225,.T.);
#148=FACE_BOUND('',#226,.T.);
#149=PLANE('',#227);
#150=SURFACE_STYLE_USAGE(.BOTH.,#212);
#151=FACE_OUTER_BOUND('',#229,.T.);
#152=CYLINDRICAL_SURFACE('',#230,1.75);
#153=SURFACE_STYLE_USAGE(.BOTH.,#212);
#154=FACE_OUTER_BOUND('',#232,.T.);
#155=FACE_BOUND('',#233,.T.);
#156=PLANE('',#234);
#157=SURFACE_STYLE_USAGE(.BOTH.,#212);
#158=FACE_OUTER_BOUND('',#236,.T.);
#159=PLANE('',#237);
#160=SURFACE_STYLE_USAGE(.BOTH.,#212);
#161=FACE_OUTER_BOUND('',#239,.T.);
#162=CYLINDRICAL_SURFACE('',#240,2.5);
#163=SURFACE_STYLE_USAGE(.BOTH.,#212);
#164=FACE_OUTER_BOUND('',#242,.T.);
#165=CYLINDRICAL_SURFACE('',#243,1.75);
#166=SURFACE_STYLE_USAGE(.BOTH.,#212);
#167=FACE_OUTER_BOUND('',#245,.T.);
#168=CYLINDRICAL_SURFACE('',#246,1.75);
#169=SURFACE_STYLE_USAGE(.BOTH.,#212);
#170=FACE_OUTER_BOUND('',#248,.T.);
#171=CYLINDRICAL_SURFACE('',#249,2.5);
#172=SURFACE_STYLE_USAGE(.BOTH.,#186);
#173=FACE_OUTER_BOUND('',#251,.T.);
#174=PLANE('',#252);
#175=SURFACE_STYLE_USAGE(.BOTH.,#186);
#176=FACE_OUTER_BOUND('',#254,.T.);
#177=PLANE('',#255);
#178=SURFACE_STYLE_USAGE(.BOTH.,#186);
#179=CLOSED_SHELL('',(#47,#49,#51,#53,#55,#57,#59,#61,#63,#65,#67,#69,#71,#73,#75,#77,#79,#81,#83,#85,#87,#89));
#180=PRODUCT_CONTEXT('',#33,'mechanical');
#181=PRODUCT_DEFINITION_FORMATION_WITH_SPECIFIED_SOURCE(' ','NONE',#92,.NOT_KNOWN.);
#182=CARTESIAN_POINT('',(0.0,0.0,0.0));
#183=DIRECTION('',(0.0,0.0,1.0));
#184=DIRECTION('',(1.0,0.0,0.0));
#185= (NAMED_UNIT(#100)LENGTH_UNIT()SI_UNIT(.MILLI.,.METRE.));
#186=SURFACE_SIDE_STYLE('',(#258));
#187=EDGE_LOOP('',(#259,#260,#261,#262));
#188=AXIS2_PLACEMENT_3D('',#263,#264,#265);
#190=EDGE_LOOP('',(#267,#268,#269,#270));
#191=AXIS2_PLACEMENT_3D('',#271,#272,#273);
#193=EDGE_LOOP('',(#275,#276,#277,#278));
#194=AXIS2_PLACEMENT_3D('',#279,#280,#281);
#196=EDGE_LOOP('',(#283,#284,#285,#286));
#197=EDGE_LOOP('',(#287,#288));
#198=EDGE_LOOP('',(#289,#290));
#199=AXIS2_PLACEMENT_3D('',#291,#292,#293);
#201=EDGE_LOOP('',(#295,#296,#297,#298));
#202=AXIS2_PLACEMENT_3D('',#299,#300,#301);
#204=EDGE_LOOP('',(#303,#304,#305,#306));
#205=AXIS2_PLACEMENT_3D('',#307,#308,#309);
#207=EDGE_LOOP('',(#311,#312,#313,#314));
#208=AXIS2_PLACEMENT_3D('',#315,#316,#317);
#210=EDGE_LOOP('',(#319,#320,#321,#322));
#211=AXIS2_PLACEMENT_3D('',#323,#324,#325);
#212=SURFACE_SIDE_STYLE('',(#326));
#213=EDGE_LOOP('',(#327,#328,#329,#330));
#214=AXIS2_PLACEMENT_3D('',#331,#332,#333);
#216=EDGE_LOOP('',(#335,#336,#337,#338));
#217=AXIS2_PLACEMENT_3D('',#339,#340,#341);
#219=EDGE_LOOP('',(#343,#344));
#220=AXIS2_PLACEMENT_3D('',#345,#346,#347);
#222=EDGE_LOOP('',(#349,#350,#351,#352));
#223=AXIS2_PLACEMENT_3D('',#353,#354,#355);
#225=EDGE_LOOP('',(#357,#358));
#226=EDGE_LOOP('',(#359,#360));
#227=AXIS2_PLACEMENT_3D('',#361,#362,#363);
#229=EDGE_LOOP('',(#365,#366,#367,#368));
#230=AXIS2_PLACEMENT_3D('',#369,#370,#371);
#232=EDGE_LOOP('',(#373,#374));
#233=EDGE_LOOP('',(#375,#376));
#234=AXIS2_PLACEMENT_3D('',#377,#378,#379);
#236=EDGE_LOOP('',(#381,#382));
#237=AXIS2_PLACEMENT_3D('',#383,#384,#385);
#239=EDGE_LOOP('',(#387,#388,#389,#390));
#240=AXIS2_PLACEMENT_3D('',#391,#392,#393);
#242=EDGE_LOOP('',(#395,#396,#397,#398));
#243=AXIS2_PLACEMENT_3D('',#399,#400,#401);
#245=EDGE_LOOP('',(#403,#404,#405,#406));
#246=AXIS2_PLACEMENT_3D('',#407,#408,#409);
#248=EDGE_LOOP('',(#411,#412,#413,#414));
#249=AXIS2_PLACEMENT_3D('',#415,#416,#417);
#251=EDGE_LOOP('',(#419,#420,#421,#422,#423,#424,#425,#426));
#252=AXIS2_PLACEMENT_3D('',#427,#428,#429);
#254=EDGE_LOOP('',(#431,#432,#433,#434,#435,#436,#437,#438));
#255=AXIS2_PLACEMENT_3D('',#439,#440,#441);
#258=SURFACE_STYLE_FILL_AREA(#443);
#259=ORIENTED_EDGE('',*,*,#444,.F.);
#260=ORIENTED_EDGE('',*,*,#445,.T.);
#261=ORIENTED_EDGE('',*,*,#446,.F.);
#262=ORIENTED_EDGE('',*,*,#447,.F.);
#263=CARTESIAN_POINT('',(0.0,-14.5,28.7638746292343));
#264=DIRECTION('',(-1.0,0.0,0.0));
#265=DIRECTION('',(0.0,1.0,0.0));
#267=ORIENTED_EDGE('',*,*,#449,.F.);
#268=ORIENTED_EDGE('',*,*,#450,.T.);
#269=ORIENTED_EDGE('',*,*,#451,.F.);
#270=ORIENTED_EDGE('',*,*,#452,.F.);
#271=CARTESIAN_POINT('',(0.0,25.5,28.7638746292344));
#272=DIRECTION('',(1.0,0.0,0.0));
#273=DIRECTION('',(0.0,-1.0,0.0));
#275=ORIENTED_EDGE('',*,*,#454,.F.);
#276=ORIENTED_EDGE('',*,*,#455,.F.);
#277=ORIENTED_EDGE('',*,*,#456,.T.);
#278=ORIENTED_EDGE('',*,*,#457,.F.);
#279=CARTESIAN_POINT('',(0.0,0.0,19.4999999999998));
#280=DIRECTION('',(0.0,-1.0,0.0));
#281=DIRECTION('',(1.0,0.0,0.0));
#283=ORIENTED_EDGE('',*,*,#459,.F.);
#284=ORIENTED_EDGE('',*,*,#460,.F.);
#285=ORIENTED_EDGE('',*,*,#461,.T.);
#286=ORIENTED_EDGE('',*,*,#455,.T.);
#287=ORIENTED_EDGE('',*,*,#462,.T.);
#288=ORIENTED_EDGE('',*,*,#463,.T.);
#289=ORIENTED_EDGE('',*,*,#464,.T.);
#290=ORIENTED_EDGE('',*,*,#465,.T.);
#291=CARTESIAN_POINT('',(-1.5000024,11.0,19.4999999999998));
#292=DIRECTION('',(0.0,0.0,-1.0));
#293=DIRECTION('',(-1.0,0.0,0.0));
#295=ORIENTED_EDGE('',*,*,#467,.F.);
#296=ORIENTED_EDGE('',*,*,#468,.F.);
#297=ORIENTED_EDGE('',*,*,#469,.T.);
#298=ORIENTED_EDGE('',*,*,#460,.T.);
#299=CARTESIAN_POINT('',(0.0,11.0,22.0000000000001));
#300=DIRECTION('',(0.0,1.0,0.0));
#301=DIRECTION('',(0.0,0.0,1.0));
#303=ORIENTED_EDGE('',*,*,#449,.T.);
#304=ORIENTED_EDGE('',*,*,#471,.F.);
#305=ORIENTED_EDGE('',*,*,#468,.T.);
#306=ORIENTED_EDGE('',*,*,#472,.T.);
#307=CARTESIAN_POINT('',(0.0,25.5,28.7638746292344));
#308=DIRECTION('',(1.0,0.0,0.0));
#309=DIRECTION('',(0.0,-1.0,0.0));
#311=ORIENTED_EDGE('',*,*,#474,.F.);
#312=ORIENTED_EDGE('',*,*,#446,.T.);
#313=ORIENTED_EDGE('',*,*,#475,.T.);
#314=ORIENTED_EDGE('',*,*,#451,.T.);
#315=CARTESIAN_POINT('',(0.0,0.436427475499713,34.4999999999998));
#316=DIRECTION('',(0.0,-0.0,1.0));
#317=DIRECTION('',(0.0,1.0,0.0));
#319=ORIENTED_EDGE('',*,*,#444,.T.);
#320=ORIENTED_EDGE('',*,*,#477,.F.);
#321=ORIENTED_EDGE('',*,*,#457,.T.);
#322=ORIENTED_EDGE('',*,*,#478,.T.);
#323=CARTESIAN_POINT('',(0.0,-14.5,28.7638746292343));
#324=DIRECTION('',(-1.0,0.0,0.0));
#325=DIRECTION('',(0.0,1.0,0.0));
#326=SURFACE_STYLE_FILL_AREA(#479);
#327=ORIENTED_EDGE('',*,*,#480,.T.);
#328=ORIENTED_EDGE('',*,*,#481,.T.);
#329=ORIENTED_EDGE('',*,*,#464,.F.);
#330=ORIENTED_EDGE('',*,*,#482,.F.);
#331=CARTESIAN_POINT('',(3.4,5.5,19.4999999999998));
#332=DIRECTION('',(-0.0,0.0,-1.0));
#333=DIRECTION('',(-1.0,-8.32667268468867E-017,0.0));
#335=ORIENTED_EDGE('',*,*,#484,.F.);
#336=ORIENTED_EDGE('',*,*,#485,.F.);
#337=ORIENTED_EDGE('',*,*,#486,.T.);
#338=ORIENTED_EDGE('',*,*,#487,.T.);
#339=CARTESIAN_POINT('',(3.4,5.5,17.4999999999998));
#340=DIRECTION('',(0.0,-0.0,1.0));
#341=DIRECTION('',(1.0,8.32667268468868E-017,0.0));
#343=ORIENTED_EDGE('',*,*,#489,.T.);
#344=ORIENTED_EDGE('',*,*,#490,.T.);
#345=CARTESIAN_POINT('',(10.8589745962156,5.5,-2.06057393370429E-013));
#346=DIRECTION('',(0.0,-0.0,1.0));
#347=DIRECTION('',(0.0,1.0,0.0));
#349=ORIENTED_EDGE('',*,*,#492,.T.);
#350=ORIENTED_EDGE('',*,*,#493,.T.);
#351=ORIENTED_EDGE('',*,*,#462,.F.);
#352=ORIENTED_EDGE('',*,*,#494,.F.);
#353=CARTESIAN_POINT('',(11.6,5.5,19.4999999999998));
#354=DIRECTION('',(-0.0,0.0,-1.0));
#355=DIRECTION('',(-1.0,-8.32667268468867E-017,0.0));
#357=ORIENTED_EDGE('',*,*,#492,.F.);
#358=ORIENTED_EDGE('',*,*,#496,.F.);
#359=ORIENTED_EDGE('',*,*,#497,.F.);
#360=ORIENTED_EDGE('',*,*,#498,.F.);
#361=CARTESIAN_POINT('',(9.475,5.5,17.4999999999998));
#362=DIRECTION('',(0.0,-0.0,1.0));
#363=DIRECTION('',(0.0,1.0,0.0));
#365=ORIENTED_EDGE('',*,*,#489,.F.);
#366=ORIENTED_EDGE('',*,*,#500,.F.);
#367=ORIENTED_EDGE('',*,*,#497,.T.);
#368=ORIENTED_EDGE('',*,*,#501,.T.);
#369=CARTESIAN_POINT('',(11.6,5.5,17.4999999999998));
#370=DIRECTION('',(0.0,-0.0,1.0));
#371=DIRECTION('',(1.0,8.32667268468868E-017,0.0));
#373=ORIENTED_EDGE('',*,*,#480,.F.);
#374=ORIENTED_EDGE('',*,*,#503,.F.);
#375=ORIENTED_EDGE('',*,*,#486,.F.);
#376=ORIENTED_EDGE('',*,*,#504,.F.);
#377=CARTESIAN_POINT('',(1.275,5.5,17.4999999999998));
#378=DIRECTION('',(0.0,-0.0,1.0));
#379=DIRECTION('',(0.0,1.0,0.0));
#381=ORIENTED_EDGE('',*,*,#484,.T.);
#382=ORIENTED_EDGE('',*,*,#506,.T.);
#383=CARTESIAN_POINT('',(2.6589745962156,5.5,-2.06057393370429E-013));
#384=DIRECTION('',(0.0,-0.0,1.0));
#385=DIRECTION('',(0.0,1.0,0.0));
#387=ORIENTED_EDGE('',*,*,#493,.F.);
#388=ORIENTED_EDGE('',*,*,#496,.T.);
#389=ORIENTED_EDGE('',*,*,#494,.T.);
#390=ORIENTED_EDGE('',*,*,#463,.F.);
#391=CARTESIAN_POINT('',(11.6,5.5,19.4999999999998));
#392=DIRECTION('',(-0.0,0.0,-1.0));
#393=DIRECTION('',(-1.0,-8.32667268468867E-017,0.0));
#395=ORIENTED_EDGE('',*,*,#487,.F.);
#396=ORIENTED_EDGE('',*,*,#504,.T.);
#397=ORIENTED_EDGE('',*,*,#485,.T.);
#398=ORIENTED_EDGE('',*,*,#506,.F.);
#399=CARTESIAN_POINT('',(3.4,5.5,17.4999999999998));
#400=DIRECTION('',(0.0,-0.0,1.0));
#401=DIRECTION('',(1.0,8.32667268468868E-017,0.0));
#403=ORIENTED_EDGE('',*,*,#501,.F.);
#404=ORIENTED_EDGE('',*,*,#498,.T.);
#405=ORIENTED_EDGE('',*,*,#500,.T.);
#406=ORIENTED_EDGE('',*,*,#490,.F.);
#407=CARTESIAN_POINT('',(11.6,5.5,17.4999999999998));
#408=DIRECTION('',(0.0,-0.0,1.0));
#409=DIRECTION('',(1.0,8.32667268468868E-017,0.0));
#411=ORIENTED_EDGE('',*,*,#481,.F.);
#412=ORIENTED_EDGE('',*,*,#503,.T.);
#413=ORIENTED_EDGE('',*,*,#482,.T.);
#414=ORIENTED_EDGE('',*,*,#465,.F.);
#415=CARTESIAN_POINT('',(3.4,5.5,19.4999999999998));
#416=DIRECTION('',(-0.0,0.0,-1.0));
#417=DIRECTION('',(-1.0,-8.32667268468867E-017,0.0));
#419=ORIENTED_EDGE('',*,*,#456,.F.);
#420=ORIENTED_EDGE('',*,*,#461,.F.);
#421=ORIENTED_EDGE('',*,*,#469,.F.);
#422=ORIENTED_EDGE('',*,*,#471,.T.);
#423=ORIENTED_EDGE('',*,*,#452,.T.);
#424=ORIENTED_EDGE('',*,*,#475,.F.);
#425=ORIENTED_EDGE('',*,*,#445,.F.);
#426=ORIENTED_EDGE('',*,*,#478,.F.);
#427=CARTESIAN_POINT('',(15.0,7.9680031249125,27.0686395777968));
#428=DIRECTION('',(-1.0,-0.0,-0.0));
#429=DIRECTION('',(0.0,0.0,-1.0));
#431=ORIENTED_EDGE('',*,*,#477,.T.);
#432=ORIENTED_EDGE('',*,*,#447,.T.);
#433=ORIENTED_EDGE('',*,*,#474,.T.);
#434=ORIENTED_EDGE('',*,*,#450,.F.);
#435=ORIENTED_EDGE('',*,*,#472,.F.);
#436=ORIENTED_EDGE('',*,*,#467,.T.);
#437=ORIENTED_EDGE('',*,*,#459,.T.);
#438=ORIENTED_EDGE('',*,*,#454,.T.);
#439=CARTESIAN_POINT('',(0.0,7.9680031249125,27.0686395777968));
#440=DIRECTION('',(-1.0,-0.0,-0.0));
#441=DIRECTION('',(0.0,0.0,-1.0));
#443=FILL_AREA_STYLE('',(#514));
#444=EDGE_CURVE('',#515,#516,#517,.T.);
#445=EDGE_CURVE('',#515,#518,#519,.T.);
#446=EDGE_CURVE('',#520,#518,#521,.T.);
#447=EDGE_CURVE('',#516,#520,#522,.T.);
#449=EDGE_CURVE('',#524,#525,#526,.T.);
#450=EDGE_CURVE('',#524,#527,#528,.T.);
#451=EDGE_CURVE('',#529,#527,#530,.T.);
#452=EDGE_CURVE('',#525,#529,#531,.T.);
#454=EDGE_CURVE('',#533,#534,#535,.T.);
#455=EDGE_CURVE('',#536,#533,#537,.T.);
#456=EDGE_CURVE('',#536,#538,#539,.T.);
#457=EDGE_CURVE('',#534,#538,#540,.T.);
#459=EDGE_CURVE('',#542,#533,#543,.T.);
#460=EDGE_CURVE('',#544,#542,#545,.T.);
#461=EDGE_CURVE('',#544,#536,#546,.T.);
#462=EDGE_CURVE('',#547,#548,#549,.T.);
#463=EDGE_CURVE('',#548,#547,#550,.T.);
#464=EDGE_CURVE('',#551,#552,#553,.T.);
#465=EDGE_CURVE('',#552,#551,#554,.T.);
#467=EDGE_CURVE('',#556,#542,#557,.T.);
#468=EDGE_CURVE('',#558,#556,#559,.T.);
#469=EDGE_CURVE('',#558,#544,#560,.T.);
#471=EDGE_CURVE('',#558,#525,#562,.T.);
#472=EDGE_CURVE('',#556,#524,#563,.T.);
#474=EDGE_CURVE('',#520,#527,#565,.T.);
#475=EDGE_CURVE('',#518,#529,#566,.T.);
#477=EDGE_CURVE('',#534,#516,#568,.T.);
#478=EDGE_CURVE('',#538,#515,#569,.T.);
#479=FILL_AREA_STYLE('',(#570));
#480=EDGE_CURVE('',#571,#572,#573,.T.);
#481=EDGE_CURVE('',#572,#552,#574,.T.);
#482=EDGE_CURVE('',#571,#551,#575,.T.);
#484=EDGE_CURVE('',#577,#578,#579,.T.);
#485=EDGE_CURVE('',#580,#577,#581,.T.);
#486=EDGE_CURVE('',#580,#582,#583,.T.);
#487=EDGE_CURVE('',#582,#578,#584,.T.);
#489=EDGE_CURVE('',#586,#587,#588,.T.);
#490=EDGE_CURVE('',#587,#586,#589,.T.);
#492=EDGE_CURVE('',#591,#592,#593,.T.);
#493=EDGE_CURVE('',#592,#548,#594,.T.);
#494=EDGE_CURVE('',#591,#547,#595,.T.);
#496=EDGE_CURVE('',#592,#591,#597,.T.);
#497=EDGE_CURVE('',#598,#599,#600,.T.);
#498=EDGE_CURVE('',#599,#598,#601,.T.);
#500=EDGE_CURVE('',#598,#586,#603,.T.);
#501=EDGE_CURVE('',#599,#587,#604,.T.);
#503=EDGE_CURVE('',#572,#571,#606,.T.);
#504=EDGE_CURVE('',#582,#580,#607,.T.);
#506=EDGE_CURVE('',#578,#577,#609,.T.);
#514=FILL_AREA_STYLE_COLOUR('',#617);
#515=VERTEX_POINT('',#618);
#516=VERTEX_POINT('',#619);
#517=LINE('',#620,#621);
#518=VERTEX_POINT('',#622);
#519=CIRCLE('',#623,16.0);
#520=VERTEX_POINT('',#624);
#521=LINE('',#625,#626);
#522=CIRCLE('',#627,16.0);
#524=VERTEX_POINT('',#629);
#525=VERTEX_POINT('',#630);
#526=LINE('',#631,#632);
#527=VERTEX_POINT('',#633);
#528=CIRCLE('',#634,16.0);
#529=VERTEX_POINT('',#635);
#530=LINE('',#636,#637);
#531=CIRCLE('',#638,16.0);
#533=VERTEX_POINT('',#640);
#534=VERTEX_POINT('',#641);
#535=LINE('',#642,#643);
#536=VERTEX_POINT('',#644);
#537=LINE('',#645,#646);
#538=VERTEX_POINT('',#647);
#539=LINE('',#648,#649);
#540=LINE('',#650,#651);
#542=VERTEX_POINT('',#653);
#543=LINE('',#654,#655);
#544=VERTEX_POINT('',#656);
#545=LINE('',#657,#658);
#546=LINE('',#659,#660);
#547=VERTEX_POINT('',#661);
#548=VERTEX_POINT('',#662);
#549=CIRCLE('',#663,2.5);
#550=CIRCLE('',#664,2.5);
#551=VERTEX_POINT('',#665);
#552=VERTEX_POINT('',#666);
#553=CIRCLE('',#667,2.5);
#554=CIRCLE('',#668,2.5);
#556=VERTEX_POINT('',#670);
#557=LINE('',#671,#672);
#558=VERTEX_POINT('',#673);
#559=LINE('',#674,#675);
#560=LINE('',#676,#677);
#562=CIRCLE('',#679,16.0);
#563=CIRCLE('',#680,16.0);
#565=LINE('',#682,#683);
#566=LINE('',#684,#685);
#568=CIRCLE('',#687,16.0);
#569=CIRCLE('',#688,16.0);
#570=FILL_AREA_STYLE_COLOUR('',#689);
#571=VERTEX_POINT('',#690);
#572=VERTEX_POINT('',#691);
#573=CIRCLE('',#692,2.5);
#574=LINE('',#693,#694);
#575=LINE('',#695,#696);
#577=VERTEX_POINT('',#698);
#578=VERTEX_POINT('',#699);
#579=CIRCLE('',#700,1.75);
#580=VERTEX_POINT('',#701);
#581=LINE('',#702,#703);
#582=VERTEX_POINT('',#704);
#583=CIRCLE('',#705,1.75);
#584=LINE('',#706,#707);
#586=VERTEX_POINT('',#709);
#587=VERTEX_POINT('',#710);
#588=CIRCLE('',#711,1.75);
#589=CIRCLE('',#712,1.75);
#591=VERTEX_POINT('',#714);
#592=VERTEX_POINT('',#715);
#593=CIRCLE('',#716,2.5);
#594=LINE('',#717,#718);
#595=LINE('',#719,#720);
#597=CIRCLE('',#722,2.5);
#598=VERTEX_POINT('',#723);
#599=VERTEX_POINT('',#724);
#600=CIRCLE('',#725,1.75);
#601=CIRCLE('',#726,1.75);
#603=LINE('',#728,#729);
#604=LINE('',#730,#731);
#606=CIRCLE('',#733,2.5);
#607=CIRCLE('',#734,1.75);
#609=CIRCLE('',#736,1.75);
#617=COLOUR_RGB('',0.313725501298904,0.313725501298904,0.313725501298904);
#618=CARTESIAN_POINT('',(15.0,1.5,28.7638746292343));
#619=CARTESIAN_POINT('',(0.0,1.5,28.7638746292343));
#620=CARTESIAN_POINT('',(7.5,1.5,28.7638746292343));
#621=VECTOR('',#744,1.0);
#622=CARTESIAN_POINT('',(15.0,0.436427475499713,34.4999999999998));
#623=AXIS2_PLACEMENT_3D('',#745,#746,#747);
#624=CARTESIAN_POINT('',(0.0,0.436427475499713,34.4999999999998));
#625=CARTESIAN_POINT('',(0.0,0.436427475499713,34.4999999999998));
#626=VECTOR('',#748,1.0);
#627=AXIS2_PLACEMENT_3D('',#749,#750,#751);
#629=CARTESIAN_POINT('',(0.0,9.5,28.7638746292344));
#630=CARTESIAN_POINT('',(15.0,9.5,28.7638746292344));
#631=CARTESIAN_POINT('',(7.5,9.5,28.7638746292344));
#632=VECTOR('',#752,1.0);
#633=CARTESIAN_POINT('',(0.0,10.5635725245004,34.4999999999998));
#634=AXIS2_PLACEMENT_3D('',#753,#754,#755);
#635=CARTESIAN_POINT('',(15.0,10.5635725245004,34.4999999999998));
#636=CARTESIAN_POINT('',(-1.5000024,10.5635725245004,34.4999999999998));
#637=VECTOR('',#756,1.0);
#638=AXIS2_PLACEMENT_3D('',#757,#758,#759);
#640=CARTESIAN_POINT('',(0.0,0.0,19.4999999999998));
#641=CARTESIAN_POINT('',(0.0,0.0,22.0));
#642=CARTESIAN_POINT('',(0.0,0.0,-37.3000000000002));
#643=VECTOR('',#760,1.0);
#644=CARTESIAN_POINT('',(15.0,0.0,19.4999999999998));
#645=CARTESIAN_POINT('',(15.0,0.0,19.4999999999998));
#646=VECTOR('',#761,1.0);
#647=CARTESIAN_POINT('',(15.0,0.0,22.0));
#648=CARTESIAN_POINT('',(15.0,0.0,-37.3000000000002));
#649=VECTOR('',#762,1.0);
#650=CARTESIAN_POINT('',(-1.5000024,0.0,22.0));
#651=VECTOR('',#763,1.0);
#653=CARTESIAN_POINT('',(0.0,11.0,19.4999999999998));
#654=CARTESIAN_POINT('',(0.0,-79.1,19.4999999999998));
#655=VECTOR('',#764,1.0);
#656=CARTESIAN_POINT('',(15.0,11.0,19.4999999999998));
#657=CARTESIAN_POINT('',(15.0,11.0,19.4999999999998));
#658=VECTOR('',#765,1.0);
#659=CARTESIAN_POINT('',(15.0,-79.1,19.4999999999998));
#660=VECTOR('',#766,1.0);
#661=CARTESIAN_POINT('',(14.1,5.5,19.4999999999998));
#662=CARTESIAN_POINT('',(9.09999999999999,5.5,19.4999999999998));
#663=AXIS2_PLACEMENT_3D('',#767,#768,#769);
#664=AXIS2_PLACEMENT_3D('',#770,#771,#772);
#665=CARTESIAN_POINT('',(5.90000000000001,5.5,19.4999999999998));
#666=CARTESIAN_POINT('',(0.9,5.5,19.4999999999998));
#667=AXIS2_PLACEMENT_3D('',#773,#774,#775);
#668=AXIS2_PLACEMENT_3D('',#776,#777,#778);
#670=CARTESIAN_POINT('',(0.0,11.0,22.0000000000001));
#671=CARTESIAN_POINT('',(0.0,11.0,-37.3000000000002));
#672=VECTOR('',#779,1.0);
#673=CARTESIAN_POINT('',(15.0,11.0,22.0000000000001));
#674=CARTESIAN_POINT('',(-1.5000024,11.0,22.0000000000001));
#675=VECTOR('',#780,1.0);
#676=CARTESIAN_POINT('',(15.0,11.0,-37.3000000000002));
#677=VECTOR('',#781,1.0);
#679=AXIS2_PLACEMENT_3D('',#782,#783,#784);
#680=AXIS2_PLACEMENT_3D('',#785,#786,#787);
#682=CARTESIAN_POINT('',(0.0,-79.1,34.4999999999998));
#683=VECTOR('',#788,1.0);
#684=CARTESIAN_POINT('',(15.0,-79.1,34.4999999999998));
#685=VECTOR('',#789,1.0);
#687=AXIS2_PLACEMENT_3D('',#790,#791,#792);
#688=AXIS2_PLACEMENT_3D('',#793,#794,#795);
#689=COLOUR_RGB('',0.823529481887817,0.823529481887817,0.784313797950745);
#690=CARTESIAN_POINT('',(5.90000000000001,5.5,17.4999999999998));
#691=CARTESIAN_POINT('',(0.9,5.5,17.4999999999998));
#692=AXIS2_PLACEMENT_3D('',#796,#797,#798);
#693=CARTESIAN_POINT('',(0.9,5.5,19.4999999999998));
#694=VECTOR('',#799,1.0);
#695=CARTESIAN_POINT('',(5.90000000000001,5.5,19.4999999999998));
#696=VECTOR('',#800,1.0);
#698=CARTESIAN_POINT('',(1.65,5.5,-2.06057393370429E-013));
#699=CARTESIAN_POINT('',(5.15000000000002,5.5,-2.06057393370429E-013));
#700=AXIS2_PLACEMENT_3D('',#801,#802,#803);
#701=CARTESIAN_POINT('',(1.65,5.5,17.4999999999998));
#702=CARTESIAN_POINT('',(1.65,5.5,17.4999999999998));
#703=VECTOR('',#804,1.0);
#704=CARTESIAN_POINT('',(5.15000000000002,5.5,17.4999999999998));
#705=AXIS2_PLACEMENT_3D('',#805,#806,#807);
#706=CARTESIAN_POINT('',(5.15000000000002,5.5,17.4999999999998));
#707=VECTOR('',#808,1.0);
#709=CARTESIAN_POINT('',(9.85,5.5,-2.06057393370429E-013));
#710=CARTESIAN_POINT('',(13.35,5.5,-2.06057393370429E-013));
#711=AXIS2_PLACEMENT_3D('',#809,#810,#811);
#712=AXIS2_PLACEMENT_3D('',#812,#813,#814);
#714=CARTESIAN_POINT('',(14.1,5.5,17.4999999999998));
#715=CARTESIAN_POINT('',(9.09999999999999,5.5,17.4999999999998));
#716=AXIS2_PLACEMENT_3D('',#815,#816,#817);
#717=CARTESIAN_POINT('',(9.09999999999999,5.5,19.4999999999998));
#718=VECTOR('',#818,1.0);
#719=CARTESIAN_POINT('',(14.1,5.5,19.4999999999998));
#720=VECTOR('',#819,1.0);
#722=AXIS2_PLACEMENT_3D('',#820,#821,#822);
#723=CARTESIAN_POINT('',(9.85,5.5,17.4999999999998));
#724=CARTESIAN_POINT('',(13.35,5.5,17.4999999999998));
#725=AXIS2_PLACEMENT_3D('',#823,#824,#825);
#726=AXIS2_PLACEMENT_3D('',#826,#827,#828);
#728=CARTESIAN_POINT('',(9.85,5.5,17.4999999999998));
#729=VECTOR('',#829,1.0);
#730=CARTESIAN_POINT('',(13.35,5.5,17.4999999999998));
#731=VECTOR('',#830,1.0);
#733=AXIS2_PLACEMENT_3D('',#831,#832,#833);
#734=AXIS2_PLACEMENT_3D('',#834,#835,#836);
#736=AXIS2_PLACEMENT_3D('',#837,#838,#839);
#744=DIRECTION('',(-1.0,-0.0,-0.0));
#745=CARTESIAN_POINT('',(15.0,-14.5,28.7638746292343));
#746=DIRECTION('',(1.0,0.0,0.0));
#747=DIRECTION('',(0.0,1.0,0.0));
#748=DIRECTION('',(1.0,0.0,0.0));
#749=CARTESIAN_POINT('',(0.0,-14.5,28.7638746292343));
#750=DIRECTION('',(1.0,0.0,0.0));
#751=DIRECTION('',(0.0,1.0,0.0));
#752=DIRECTION('',(1.0,0.0,-0.0));
#753=CARTESIAN_POINT('',(0.0,25.5,28.7638746292344));
#754=DIRECTION('',(-1.0,0.0,0.0));
#755=DIRECTION('',(0.0,-1.0,0.0));
#756=DIRECTION('',(-1.0,0.0,0.0));
#757=CARTESIAN_POINT('',(15.0,25.5,28.7638746292344));
#758=DIRECTION('',(-1.0,0.0,0.0));
#759=DIRECTION('',(0.0,-1.0,0.0));
#760=DIRECTION('',(0.0,0.0,1.0));
#761=DIRECTION('',(-1.0,0.0,0.0));
#762=DIRECTION('',(0.0,0.0,1.0));
#763=DIRECTION('',(1.0,0.0,0.0));
#764=DIRECTION('',(0.0,-1.0,0.0));
#765=DIRECTION('',(-1.0,0.0,0.0));
#766=DIRECTION('',(0.0,-1.0,0.0));
#767=CARTESIAN_POINT('',(11.6,5.5,19.4999999999998));
#768=DIRECTION('',(0.0,0.0,1.0));
#769=DIRECTION('',(-1.0,-8.32667268468868E-017,0.0));
#770=CARTESIAN_POINT('',(11.6,5.5,19.4999999999998));
#771=DIRECTION('',(0.0,0.0,1.0));
#772=DIRECTION('',(-1.0,-8.32667268468868E-017,0.0));
#773=CARTESIAN_POINT('',(3.4,5.5,19.4999999999998));
#774=DIRECTION('',(0.0,0.0,1.0));
#775=DIRECTION('',(-1.0,-8.32667268468868E-017,0.0));
#776=CARTESIAN_POINT('',(3.4,5.5,19.4999999999998));
#777=DIRECTION('',(0.0,0.0,1.0));
#778=DIRECTION('',(-1.0,-8.32667268468868E-017,0.0));
#779=DIRECTION('',(0.0,0.0,-1.0));
#780=DIRECTION('',(-1.0,0.0,0.0));
#781=DIRECTION('',(0.0,0.0,-1.0));
#782=CARTESIAN_POINT('',(15.0,25.5,28.7638746292344));
#783=DIRECTION('',(-1.0,0.0,0.0));
#784=DIRECTION('',(0.0,-1.0,0.0));
#785=CARTESIAN_POINT('',(0.0,25.5,28.7638746292344));
#786=DIRECTION('',(-1.0,0.0,0.0));
#787=DIRECTION('',(0.0,-1.0,0.0));
#788=DIRECTION('',(0.0,1.0,0.0));
#789=DIRECTION('',(0.0,1.0,0.0));
#790=CARTESIAN_POINT('',(0.0,-14.5,28.7638746292343));
#791=DIRECTION('',(1.0,0.0,0.0));
#792=DIRECTION('',(0.0,1.0,0.0));
#793=CARTESIAN_POINT('',(15.0,-14.5,28.7638746292343));
#794=DIRECTION('',(1.0,0.0,0.0));
#795=DIRECTION('',(0.0,1.0,0.0));
#796=CARTESIAN_POINT('',(3.4,5.5,17.4999999999998));
#797=DIRECTION('',(0.0,0.0,1.0));
#798=DIRECTION('',(-1.0,-8.32667268468867E-017,0.0));
#799=DIRECTION('',(0.0,0.0,1.0));
#800=DIRECTION('',(0.0,0.0,1.0));
#801=CARTESIAN_POINT('',(3.4,5.5,-2.06057393370429E-013));
#802=DIRECTION('',(0.0,0.0,-1.0));
#803=DIRECTION('',(1.0,8.32667268468868E-017,0.0));
#804=DIRECTION('',(0.0,0.0,-1.0));
#805=CARTESIAN_POINT('',(3.4,5.5,17.4999999999998));
#806=DIRECTION('',(0.0,0.0,-1.0));
#807=DIRECTION('',(1.0,8.32667268468868E-017,0.0));
#808=DIRECTION('',(0.0,0.0,-1.0));
#809=CARTESIAN_POINT('',(11.6,5.5,-2.06057393370429E-013));
#810=DIRECTION('',(0.0,0.0,-1.0));
#811=DIRECTION('',(1.0,8.32667268468868E-017,0.0));
#812=CARTESIAN_POINT('',(11.6,5.5,-2.06057393370429E-013));
#813=DIRECTION('',(0.0,0.0,-1.0));
#814=DIRECTION('',(1.0,8.32667268468868E-017,0.0));
#815=CARTESIAN_POINT('',(11.6,5.5,17.4999999999998));
#816=DIRECTION('',(0.0,0.0,1.0));
#817=DIRECTION('',(-1.0,-8.32667268468867E-017,0.0));
#818=DIRECTION('',(0.0,0.0,1.0));
#819=DIRECTION('',(0.0,0.0,1.0));
#820=CARTESIAN_POINT('',(11.6,5.5,17.4999999999998));
#821=DIRECTION('',(0.0,0.0,1.0));
#822=DIRECTION('',(-1.0,-8.32667268468867E-017,0.0));
#823=CARTESIAN_POINT('',(11.6,5.5,17.4999999999998));
#824=DIRECTION('',(0.0,0.0,-1.0));
#825=DIRECTION('',(1.0,8.32667268468868E-017,0.0));
#826=CARTESIAN_POINT('',(11.6,5.5,17.4999999999998));
#827=DIRECTION('',(0.0,0.0,-1.0));
#828=DIRECTION('',(1.0,8.32667268468868E-017,0.0));
#829=DIRECTION('',(0.0,0.0,-1.0));
#830=DIRECTION('',(0.0,0.0,-1.0));
#831=CARTESIAN_POINT('',(3.4,5.5,17.4999999999998));
#832=DIRECTION('',(0.0,0.0,1.0));
#833=DIRECTION('',(-1.0,-8.32667268468867E-017,0.0));
#834=CARTESIAN_POINT('',(3.4,5.5,17.4999999999998));
#835=DIRECTION('',(0.0,0.0,-1.0));
#836=DIRECTION('',(1.0,8.32667268468868E-017,0.0));
#837=CARTESIAN_POINT('',(3.4,5.5,-2.06057393370429E-013));
#838=DIRECTION('',(0.0,0.0,-1.0));
#839=DIRECTION('',(1.0,8.32667268468868E-017,0.0));
ENDSEC;
END-ISO-10303-21;

