ISO-10303-21;
HEADER;
FILE_DESCRIPTION(('STEP AP214'),'1');
FILE_NAME('cctmp_15B39DE3-C76A-45B4-B4E8-FEBFE7F8B3BE_2023_07_24_21_51_54_0102..stp','2023-07-24T19:51:54',('SIEMENS A&D'),('CADClick - www.CADClick.com'),'Spatial InterOp 3D postprocessed',' ','unknown authorization');
FILE_SCHEMA(('AUTOMOTIVE_DESIGN'));
ENDSEC;
DATA;
#1=MECHANICAL_DESIGN_GEOMETRIC_PRESENTATION_REPRESENTATION(' ',(#10,#11,#12,#13,#14,#15,#16,#17,#18,#19,#20,#21,#22,#23,#24,#25),#6);
#2=PRODUCT_DEFINITION_CONTEXT('',#26,'design');
#3=APPLICATION_PROTOCOL_DEFINITION('INTERNATIONAL STANDARD','automotive_design',1994,#26);
#4=PRODUCT_CATEGORY_RELATIONSHIP('NONE','NONE',#27,#28);
#5=SHAPE_DEFINITION_REPRESENTATION(#29,#30);
#6= (GEOMETRIC_REPRESENTATION_CONTEXT(3)GLOBAL_UNCERTAINTY_ASSIGNED_CONTEXT((#33))GLOBAL_UNIT_ASSIGNED_CONTEXT((#35,#36,#37))REPRESENTATION_CONTEXT('NONE','WORKSPACE'));
#10=STYLED_ITEM('',(#39),#40);
#11=STYLED_ITEM('',(#41),#42);
#12=STYLED_ITEM('',(#43),#44);
#13=STYLED_ITEM('',(#45),#46);
#14=STYLED_ITEM('',(#47),#48);
#15=STYLED_ITEM('',(#49),#50);
#16=STYLED_ITEM('',(#51),#52);
#17=STYLED_ITEM('',(#53),#54);
#18=STYLED_ITEM('',(#55),#56);
#19=STYLED_ITEM('',(#57),#58);
#20=STYLED_ITEM('',(#59),#60);
#21=STYLED_ITEM('',(#61),#62);
#22=STYLED_ITEM('',(#63),#64);
#23=STYLED_ITEM('',(#65),#66);
#24=STYLED_ITEM('',(#67),#68);
#25=STYLED_ITEM('',(#69),#70);
#26=APPLICATION_CONTEXT(' ');
#27=PRODUCT_CATEGORY('part','NONE');
#28=PRODUCT_RELATED_PRODUCT_CATEGORY('detail',' ',(#71));
#29=PRODUCT_DEFINITION_SHAPE('NONE','NONE',#72);
#30=ADVANCED_BREP_SHAPE_REPRESENTATION('2023_07_24_21_51_54_0102',(#70,#73),#6);
#33=UNCERTAINTY_MEASURE_WITH_UNIT(LENGTH_MEASURE(1.0E-006),#35,'','');
#35= (CONVERSION_BASED_UNIT('MILLIMETRE',#76)LENGTH_UNIT()NAMED_UNIT(#79));
#36= (NAMED_UNIT(#81)PLANE_ANGLE_UNIT()SI_UNIT($,.RADIAN.));
#37= (NAMED_UNIT(#81)SOLID_ANGLE_UNIT()SI_UNIT($,.STERADIAN.));
#39=PRESENTATION_STYLE_ASSIGNMENT((#87));
#40=ADVANCED_FACE('',(#88),#89,.F.);
#41=PRESENTATION_STYLE_ASSIGNMENT((#90));
#42=ADVANCED_FACE('',(#91),#92,.F.);
#43=PRESENTATION_STYLE_ASSIGNMENT((#93));
#44=ADVANCED_FACE('',(#94),#95,.T.);
#45=PRESENTATION_STYLE_ASSIGNMENT((#96));
#46=ADVANCED_FACE('',(#97),#98,.T.);
#47=PRESENTATION_STYLE_ASSIGNMENT((#99));
#48=ADVANCED_FACE('',(#100),#101,.T.);
#49=PRESENTATION_STYLE_ASSIGNMENT((#102));
#50=ADVANCED_FACE('',(#103),#104,.F.);
#51=PRESENTATION_STYLE_ASSIGNMENT((#105));
#52=ADVANCED_FACE('',(#106),#107,.T.);
#53=PRESENTATION_STYLE_ASSIGNMENT((#108));
#54=ADVANCED_FACE('',(#109),#110,.T.);
#55=PRESENTATION_STYLE_ASSIGNMENT((#111));
#56=ADVANCED_FACE('',(#112),#113,.F.);
#57=PRESENTATION_STYLE_ASSIGNMENT((#114));
#58=ADVANCED_FACE('',(#115),#116,.F.);
#59=PRESENTATION_STYLE_ASSIGNMENT((#117));
#60=ADVANCED_FACE('',(#118),#119,.F.);
#61=PRESENTATION_STYLE_ASSIGNMENT((#120));
#62=ADVANCED_FACE('',(#121),#122,.T.);
#63=PRESENTATION_STYLE_ASSIGNMENT((#123));
#64=ADVANCED_FACE('',(#124),#125,.F.);
#65=PRESENTATION_STYLE_ASSIGNMENT((#126));
#66=ADVANCED_FACE('',(#127),#128,.T.);
#67=PRESENTATION_STYLE_ASSIGNMENT((#129));
#68=ADVANCED_FACE('',(#130),#131,.T.);
#69=PRESENTATION_STYLE_ASSIGNMENT((#132));
#70=MANIFOLD_SOLID_BREP('2023_07_24_21_51_54_0102',#133);
#71=PRODUCT('2023_07_24_21_51_54_0102','','PART--DESC',(#134));
#72=PRODUCT_DEFINITION('','NONE',#135,#2);
#73=AXIS2_PLACEMENT_3D('',#136,#137,#138);
#76=LENGTH_MEASURE_WITH_UNIT(LENGTH_MEASURE(1.0),#139);
#79=DIMENSIONAL_EXPONENTS(1.0,0.0,0.0,0.0,0.0,0.0,0.0);
#81=DIMENSIONAL_EXPONENTS(0.0,0.0,0.0,0.0,0.0,0.0,0.0);
#87=SURFACE_STYLE_USAGE(.BOTH.,#140);
#88=FACE_OUTER_BOUND('',#141,.T.);
#89=CYLINDRICAL_SURFACE('',#142,15.0);
#90=SURFACE_STYLE_USAGE(.BOTH.,#140);
#91=FACE_OUTER_BOUND('',#144,.T.);
#92=CYLINDRICAL_SURFACE('',#145,15.0);
#93=SURFACE_STYLE_USAGE(.BOTH.,#140);
#94=FACE_OUTER_BOUND('',#147,.T.);
#95=PLANE('',#148);
#96=SURFACE_STYLE_USAGE(.BOTH.,#140);
#97=FACE_OUTER_BOUND('',#150,.T.);
#98=PLANE('',#151);
#99=SURFACE_STYLE_USAGE(.BOTH.,#140);
#100=FACE_OUTER_BOUND('',#153,.T.);
#101=PLANE('',#154);
#102=SURFACE_STYLE_USAGE(.BOTH.,#140);
#103=FACE_OUTER_BOUND('',#156,.T.);
#104=PLANE('',#157);
#105=SURFACE_STYLE_USAGE(.BOTH.,#140);
#106=FACE_OUTER_BOUND('',#159,.T.);
#107=PLANE('',#160);
#108=SURFACE_STYLE_USAGE(.BOTH.,#140);
#109=FACE_OUTER_BOUND('',#162,.T.);
#110=PLANE('',#163);
#111=SURFACE_STYLE_USAGE(.BOTH.,#140);
#112=FACE_OUTER_BOUND('',#165,.T.);
#113=CYLINDRICAL_SURFACE('',#166,15.0);
#114=SURFACE_STYLE_USAGE(.BOTH.,#140);
#115=FACE_OUTER_BOUND('',#168,.T.);
#116=CYLINDRICAL_SURFACE('',#169,15.0);
#117=SURFACE_STYLE_USAGE(.BOTH.,#140);
#118=FACE_OUTER_BOUND('',#171,.T.);
#119=PLANE('',#172);
#120=SURFACE_STYLE_USAGE(.BOTH.,#140);
#121=FACE_OUTER_BOUND('',#174,.T.);
#122=PLANE('',#175);
#123=SURFACE_STYLE_USAGE(.BOTH.,#140);
#124=FACE_OUTER_BOUND('',#177,.T.);
#125=PLANE('',#178);
#126=SURFACE_STYLE_USAGE(.BOTH.,#140);
#127=FACE_OUTER_BOUND('',#180,.T.);
#128=PLANE('',#181);
#129=SURFACE_STYLE_USAGE(.BOTH.,#140);
#130=FACE_OUTER_BOUND('',#183,.T.);
#131=PLANE('',#184);
#132=SURFACE_STYLE_USAGE(.BOTH.,#140);
#133=CLOSED_SHELL('',(#40,#42,#44,#46,#48,#50,#52,#54,#56,#58,#60,#62,#64,#66,#68));
#134=PRODUCT_CONTEXT('',#26,'mechanical');
#135=PRODUCT_DEFINITION_FORMATION_WITH_SPECIFIED_SOURCE(' ','NONE',#71,.NOT_KNOWN.);
#136=CARTESIAN_POINT('',(0.0,0.0,0.0));
#137=DIRECTION('',(0.0,0.0,1.0));
#138=DIRECTION('',(1.0,0.0,0.0));
#139= (NAMED_UNIT(#79)LENGTH_UNIT()SI_UNIT(.MILLI.,.METRE.));
#140=SURFACE_SIDE_STYLE('',(#187));
#141=EDGE_LOOP('',(#188,#189,#190,#191));
#142=AXIS2_PLACEMENT_3D('',#192,#193,#194);
#144=EDGE_LOOP('',(#196,#197,#198,#199));
#145=AXIS2_PLACEMENT_3D('',#200,#201,#202);
#147=EDGE_LOOP('',(#204,#205,#206,#207));
#148=AXIS2_PLACEMENT_3D('',#208,#209,#210);
#150=EDGE_LOOP('',(#212,#213,#214,#215));
#151=AXIS2_PLACEMENT_3D('',#216,#217,#218);
#153=EDGE_LOOP('',(#220,#221,#222,#223));
#154=AXIS2_PLACEMENT_3D('',#224,#225,#226);
#156=EDGE_LOOP('',(#228,#229,#230,#231,#232,#233,#234,#235,#236,#237,#238,#239,#240));
#157=AXIS2_PLACEMENT_3D('',#241,#242,#243);
#159=EDGE_LOOP('',(#245,#246,#247,#248,#249,#250,#251,#252,#253,#254,#255,#256,#257));
#160=AXIS2_PLACEMENT_3D('',#258,#259,#260);
#162=EDGE_LOOP('',(#262,#263,#264,#265));
#163=AXIS2_PLACEMENT_3D('',#266,#267,#268);
#165=EDGE_LOOP('',(#270,#271,#272,#273));
#166=AXIS2_PLACEMENT_3D('',#274,#275,#276);
#168=EDGE_LOOP('',(#278,#279,#280,#281));
#169=AXIS2_PLACEMENT_3D('',#282,#283,#284);
#171=EDGE_LOOP('',(#286,#287,#288,#289));
#172=AXIS2_PLACEMENT_3D('',#290,#291,#292);
#174=EDGE_LOOP('',(#294,#295,#296,#297));
#175=AXIS2_PLACEMENT_3D('',#298,#299,#300);
#177=EDGE_LOOP('',(#302,#303,#304,#305));
#178=AXIS2_PLACEMENT_3D('',#306,#307,#308);
#180=EDGE_LOOP('',(#310,#311,#312,#313));
#181=AXIS2_PLACEMENT_3D('',#314,#315,#316);
#183=EDGE_LOOP('',(#318,#319,#320,#321));
#184=AXIS2_PLACEMENT_3D('',#322,#323,#324);
#187=SURFACE_STYLE_FILL_AREA(#326);
#188=ORIENTED_EDGE('',*,*,#327,.F.);
#189=ORIENTED_EDGE('',*,*,#328,.T.);
#190=ORIENTED_EDGE('',*,*,#329,.F.);
#191=ORIENTED_EDGE('',*,*,#330,.F.);
#192=CARTESIAN_POINT('',(-7.105427357601E-015,-14.3090880212542,12.4999999999984));
#193=DIRECTION('',(-1.0,1.66533453693773E-016,1.66533453693773E-016));
#194=DIRECTION('',(1.66533453693773E-016,1.0,-2.77333911991762E-032));
#196=ORIENTED_EDGE('',*,*,#332,.F.);
#197=ORIENTED_EDGE('',*,*,#333,.F.);
#198=ORIENTED_EDGE('',*,*,#334,.T.);
#199=ORIENTED_EDGE('',*,*,#335,.T.);
#200=CARTESIAN_POINT('',(7.105427357601E-015,75.647727083718,10.9999999999921));
#201=DIRECTION('',(-1.0,1.66533453693773E-016,1.66533453693773E-016));
#202=DIRECTION('',(1.66533453693773E-016,1.0,-2.77333911991762E-032));
#204=ORIENTED_EDGE('',*,*,#337,.T.);
#205=ORIENTED_EDGE('',*,*,#338,.F.);
#206=ORIENTED_EDGE('',*,*,#339,.F.);
#207=ORIENTED_EDGE('',*,*,#340,.T.);
#208=CARTESIAN_POINT('',(0.0,50.0999999988504,-3.12638803734444E-013));
#209=DIRECTION('',(-1.66533453693773E-016,-1.69688485914333E-046,-1.0));
#210=DIRECTION('',(-1.0,1.66533453693773E-016,1.66533453693773E-016));
#212=ORIENTED_EDGE('',*,*,#342,.T.);
#213=ORIENTED_EDGE('',*,*,#343,.T.);
#214=ORIENTED_EDGE('',*,*,#344,.T.);
#215=ORIENTED_EDGE('',*,*,#345,.F.);
#216=CARTESIAN_POINT('',(0.0,61.8999999988505,4.99999999999209));
#217=DIRECTION('',(1.66533453693773E-016,1.0,-2.77333911991762E-032));
#218=DIRECTION('',(1.66533453693773E-016,1.69688485914333E-046,1.0));
#220=ORIENTED_EDGE('',*,*,#347,.T.);
#221=ORIENTED_EDGE('',*,*,#348,.T.);
#222=ORIENTED_EDGE('',*,*,#334,.F.);
#223=ORIENTED_EDGE('',*,*,#349,.F.);
#224=CARTESIAN_POINT('',(7.105427357601E-015,61.8999999988505,21.6896614365267));
#225=DIRECTION('',(1.66533453693773E-016,1.0,-2.77333911991762E-032));
#226=DIRECTION('',(1.66533453693773E-016,1.69688485914333E-046,1.0));
#228=ORIENTED_EDGE('',*,*,#351,.T.);
#229=ORIENTED_EDGE('',*,*,#352,.T.);
#230=ORIENTED_EDGE('',*,*,#349,.T.);
#231=ORIENTED_EDGE('',*,*,#333,.T.);
#232=ORIENTED_EDGE('',*,*,#353,.T.);
#233=ORIENTED_EDGE('',*,*,#345,.T.);
#234=ORIENTED_EDGE('',*,*,#354,.F.);
#235=ORIENTED_EDGE('',*,*,#338,.T.);
#236=ORIENTED_EDGE('',*,*,#355,.T.);
#237=ORIENTED_EDGE('',*,*,#356,.T.);
#238=ORIENTED_EDGE('',*,*,#330,.T.);
#239=ORIENTED_EDGE('',*,*,#357,.T.);
#240=ORIENTED_EDGE('',*,*,#358,.F.);
#241=CARTESIAN_POINT('',(0.0,69.6412703594613,-2.90500239999961));
#242=DIRECTION('',(1.0,-1.66533453693773E-016,-1.66533453693773E-016));
#243=DIRECTION('',(1.66533453693773E-016,1.0,-2.77333911991762E-032));
#245=ORIENTED_EDGE('',*,*,#360,.F.);
#246=ORIENTED_EDGE('',*,*,#361,.T.);
#247=ORIENTED_EDGE('',*,*,#362,.F.);
#248=ORIENTED_EDGE('',*,*,#328,.F.);
#249=ORIENTED_EDGE('',*,*,#363,.F.);
#250=ORIENTED_EDGE('',*,*,#364,.F.);
#251=ORIENTED_EDGE('',*,*,#340,.F.);
#252=ORIENTED_EDGE('',*,*,#365,.T.);
#253=ORIENTED_EDGE('',*,*,#343,.F.);
#254=ORIENTED_EDGE('',*,*,#366,.F.);
#255=ORIENTED_EDGE('',*,*,#335,.F.);
#256=ORIENTED_EDGE('',*,*,#348,.F.);
#257=ORIENTED_EDGE('',*,*,#367,.F.);
#258=CARTESIAN_POINT('',(2.1,28.2753175069674,15.5029757686589));
#259=DIRECTION('',(1.0,-1.66533453693773E-016,-1.66533453693773E-016));
#260=DIRECTION('',(1.66533453693773E-016,1.0,-2.77333911991762E-032));
#262=ORIENTED_EDGE('',*,*,#369,.T.);
#263=ORIENTED_EDGE('',*,*,#367,.T.);
#264=ORIENTED_EDGE('',*,*,#347,.F.);
#265=ORIENTED_EDGE('',*,*,#352,.F.);
#266=CARTESIAN_POINT('',(5.40502753665351E-010,61.9394566805569,21.741427033633));
#267=DIRECTION('',(7.10943279175281E-014,0.984807753011599,0.173648177670384));
#268=DIRECTION('',(-1.0,1.66533453693773E-016,4.0847145897398E-013));
#270=ORIENTED_EDGE('',*,*,#332,.T.);
#271=ORIENTED_EDGE('',*,*,#366,.T.);
#272=ORIENTED_EDGE('',*,*,#342,.F.);
#273=ORIENTED_EDGE('',*,*,#353,.F.);
#274=CARTESIAN_POINT('',(7.105427357601E-015,75.647727083718,10.9999999999921));
#275=DIRECTION('',(-1.0,1.66533453693773E-016,1.66533453693773E-016));
#276=DIRECTION('',(1.66533453693773E-016,1.0,-2.77333911991762E-032));
#278=ORIENTED_EDGE('',*,*,#327,.T.);
#279=ORIENTED_EDGE('',*,*,#356,.F.);
#280=ORIENTED_EDGE('',*,*,#372,.T.);
#281=ORIENTED_EDGE('',*,*,#363,.T.);
#282=CARTESIAN_POINT('',(-7.105427357601E-015,-14.3090880212542,12.4999999999984));
#283=DIRECTION('',(-1.0,1.66533453693773E-016,1.66533453693773E-016));
#284=DIRECTION('',(1.66533453693773E-016,1.0,-2.77333911991762E-032));
#286=ORIENTED_EDGE('',*,*,#374,.F.);
#287=ORIENTED_EDGE('',*,*,#361,.F.);
#288=ORIENTED_EDGE('',*,*,#375,.T.);
#289=ORIENTED_EDGE('',*,*,#358,.T.);
#290=CARTESIAN_POINT('',(3.37188055254956E-010,-0.0302407447946074,21.7574347133787));
#291=DIRECTION('',(-7.07821371087618E-014,0.984807753012133,-0.173648177667356));
#292=DIRECTION('',(-1.0,1.66533453693773E-016,4.08562540063053E-013));
#294=ORIENTED_EDGE('',*,*,#329,.T.);
#295=ORIENTED_EDGE('',*,*,#362,.T.);
#296=ORIENTED_EDGE('',*,*,#374,.T.);
#297=ORIENTED_EDGE('',*,*,#357,.F.);
#298=CARTESIAN_POINT('',(-7.105427357601E-015,-7.105427357601E-015,16.9999999999983));
#299=DIRECTION('',(-1.66533453693773E-016,-1.0,2.77333911991762E-032));
#300=DIRECTION('',(1.0,-1.66533453693773E-016,-1.66533453693773E-016));
#302=ORIENTED_EDGE('',*,*,#344,.F.);
#303=ORIENTED_EDGE('',*,*,#365,.F.);
#304=ORIENTED_EDGE('',*,*,#339,.T.);
#305=ORIENTED_EDGE('',*,*,#354,.T.);
#306=CARTESIAN_POINT('',(-5.72749844804841,44.4098221647747,-5.98107372863601));
#307=DIRECTION('',(-1.21443048069053E-012,-0.454911082379683,0.890536864553144));
#308=DIRECTION('',(1.0,-2.66992568859093E-012,-1.66533453693859E-016));
#310=ORIENTED_EDGE('',*,*,#364,.T.);
#311=ORIENTED_EDGE('',*,*,#372,.F.);
#312=ORIENTED_EDGE('',*,*,#355,.F.);
#313=ORIENTED_EDGE('',*,*,#337,.F.);
#314=CARTESIAN_POINT('',(-7.105427357601E-015,-7.105427357601E-015,-4.12114786740858E-013));
#315=DIRECTION('',(-1.66533453693773E-016,-1.0,2.77333911991762E-032));
#316=DIRECTION('',(1.0,-1.66533453693773E-016,-1.66533453693773E-016));
#318=ORIENTED_EDGE('',*,*,#375,.F.);
#319=ORIENTED_EDGE('',*,*,#360,.T.);
#320=ORIENTED_EDGE('',*,*,#369,.F.);
#321=ORIENTED_EDGE('',*,*,#351,.F.);
#322=CARTESIAN_POINT('',(0.0,24.5047248461632,29.0499999999932));
#323=DIRECTION('',(1.66533453693773E-016,1.69688485914333E-046,1.0));
#324=DIRECTION('',(1.66533453693773E-016,1.0,-2.77333911991762E-032));
#326=FILL_AREA_STYLE('',(#381));
#327=EDGE_CURVE('',#382,#383,#384,.T.);
#328=EDGE_CURVE('',#382,#385,#386,.T.);
#329=EDGE_CURVE('',#387,#385,#388,.T.);
#330=EDGE_CURVE('',#383,#387,#389,.T.);
#332=EDGE_CURVE('',#391,#392,#393,.T.);
#333=EDGE_CURVE('',#394,#391,#395,.T.);
#334=EDGE_CURVE('',#394,#396,#397,.T.);
#335=EDGE_CURVE('',#396,#392,#398,.T.);
#337=EDGE_CURVE('',#400,#401,#402,.T.);
#338=EDGE_CURVE('',#403,#401,#404,.T.);
#339=EDGE_CURVE('',#405,#403,#406,.T.);
#340=EDGE_CURVE('',#405,#400,#407,.T.);
#342=EDGE_CURVE('',#409,#410,#411,.T.);
#343=EDGE_CURVE('',#410,#412,#413,.T.);
#344=EDGE_CURVE('',#412,#414,#415,.T.);
#345=EDGE_CURVE('',#409,#414,#416,.T.);
#347=EDGE_CURVE('',#418,#419,#420,.T.);
#348=EDGE_CURVE('',#419,#396,#421,.T.);
#349=EDGE_CURVE('',#418,#394,#422,.T.);
#351=EDGE_CURVE('',#424,#425,#426,.T.);
#352=EDGE_CURVE('',#425,#418,#427,.T.);
#353=EDGE_CURVE('',#391,#409,#428,.T.);
#354=EDGE_CURVE('',#403,#414,#429,.T.);
#355=EDGE_CURVE('',#401,#430,#431,.T.);
#356=EDGE_CURVE('',#430,#383,#432,.T.);
#357=EDGE_CURVE('',#387,#433,#434,.T.);
#358=EDGE_CURVE('',#424,#433,#435,.T.);
#360=EDGE_CURVE('',#437,#438,#439,.T.);
#361=EDGE_CURVE('',#437,#440,#441,.T.);
#362=EDGE_CURVE('',#385,#440,#442,.T.);
#363=EDGE_CURVE('',#443,#382,#444,.T.);
#364=EDGE_CURVE('',#400,#443,#445,.T.);
#365=EDGE_CURVE('',#405,#412,#446,.T.);
#366=EDGE_CURVE('',#392,#410,#447,.T.);
#367=EDGE_CURVE('',#438,#419,#448,.T.);
#369=EDGE_CURVE('',#425,#438,#450,.T.);
#372=EDGE_CURVE('',#430,#443,#453,.T.);
#374=EDGE_CURVE('',#440,#433,#455,.T.);
#375=EDGE_CURVE('',#437,#424,#456,.T.);
#381=FILL_AREA_STYLE_COLOUR('',#462);
#382=VERTEX_POINT('',#463);
#383=VERTEX_POINT('',#464);
#384=LINE('',#465,#466);
#385=VERTEX_POINT('',#467);
#386=CIRCLE('',#468,15.0);
#387=VERTEX_POINT('',#469);
#388=LINE('',#470,#471);
#389=CIRCLE('',#472,15.0);
#391=VERTEX_POINT('',#474);
#392=VERTEX_POINT('',#475);
#393=LINE('',#476,#477);
#394=VERTEX_POINT('',#478);
#395=CIRCLE('',#479,15.0);
#396=VERTEX_POINT('',#480);
#397=LINE('',#481,#482);
#398=CIRCLE('',#483,15.0);
#400=VERTEX_POINT('',#485);
#401=VERTEX_POINT('',#486);
#402=LINE('',#487,#488);
#403=VERTEX_POINT('',#489);
#404=LINE('',#490,#491);
#405=VERTEX_POINT('',#492);
#406=LINE('',#493,#494);
#407=LINE('',#495,#496);
#409=VERTEX_POINT('',#498);
#410=VERTEX_POINT('',#499);
#411=LINE('',#500,#501);
#412=VERTEX_POINT('',#502);
#413=LINE('',#503,#504);
#414=VERTEX_POINT('',#505);
#415=LINE('',#506,#507);
#416=LINE('',#508,#509);
#418=VERTEX_POINT('',#511);
#419=VERTEX_POINT('',#512);
#420=LINE('',#513,#514);
#421=LINE('',#515,#516);
#422=LINE('',#517,#518);
#424=VERTEX_POINT('',#520);
#425=VERTEX_POINT('',#521);
#426=LINE('',#522,#523);
#427=LINE('',#524,#525);
#428=CIRCLE('',#526,15.0);
#429=LINE('',#527,#528);
#430=VERTEX_POINT('',#529);
#431=LINE('',#530,#531);
#432=CIRCLE('',#532,15.0);
#433=VERTEX_POINT('',#533);
#434=LINE('',#534,#535);
#435=LINE('',#536,#537);
#437=VERTEX_POINT('',#539);
#438=VERTEX_POINT('',#540);
#439=LINE('',#541,#542);
#440=VERTEX_POINT('',#543);
#441=LINE('',#544,#545);
#442=LINE('',#546,#547);
#443=VERTEX_POINT('',#548);
#444=CIRCLE('',#549,15.0);
#445=LINE('',#550,#551);
#446=LINE('',#552,#553);
#447=CIRCLE('',#554,15.0);
#448=LINE('',#555,#556);
#450=LINE('',#558,#559);
#453=LINE('',#562,#563);
#455=LINE('',#565,#566);
#456=LINE('',#567,#568);
#462=COLOUR_RGB('',0.560784339904785,0.588235318660736,0.600000023841858);
#463=CARTESIAN_POINT('',(2.1,0.690911978745792,12.4999999999984));
#464=CARTESIAN_POINT('',(-4.6064161383053E-015,0.690911978745792,12.4999999999984));
#465=CARTESIAN_POINT('',(1.05,0.690911978745792,12.4999999999984));
#466=VECTOR('',#574,1.0);
#467=CARTESIAN_POINT('',(2.09999999999999,-1.06581410364015E-014,16.9999999999983));
#468=AXIS2_PLACEMENT_3D('',#575,#576,#577);
#469=CARTESIAN_POINT('',(-7.105427357601E-015,-7.105427357601E-015,16.9999999999983));
#470=CARTESIAN_POINT('',(-7.105427357601E-015,-7.105427357601E-015,16.9999999999983));
#471=VECTOR('',#578,1.0);
#472=AXIS2_PLACEMENT_3D('',#579,#580,#581);
#474=CARTESIAN_POINT('',(4.58304479442899E-015,60.647727083718,10.9999999999921));
#475=CARTESIAN_POINT('',(2.10000000000001,60.647727083718,10.9999999999921));
#476=CARTESIAN_POINT('',(1.05,60.647727083718,10.9999999999921));
#477=VECTOR('',#582,1.0);
#478=CARTESIAN_POINT('',(0.0,61.8999999988505,16.9999999999921));
#479=AXIS2_PLACEMENT_3D('',#583,#584,#585);
#480=CARTESIAN_POINT('',(2.1,61.8999999988505,16.9999999999921));
#481=CARTESIAN_POINT('',(0.0,61.8999999988505,16.9999999999921));
#482=VECTOR('',#586,1.0);
#483=AXIS2_PLACEMENT_3D('',#587,#588,#589);
#485=CARTESIAN_POINT('',(2.09999999999999,-1.06581410364015E-014,-3.12638803734444E-013));
#486=CARTESIAN_POINT('',(-7.105427357601E-015,-7.105427357601E-015,-3.12638803734444E-013));
#487=CARTESIAN_POINT('',(-7.105427357601E-015,-7.105427357601E-015,-3.12638803734444E-013));
#488=VECTOR('',#590,1.0);
#489=CARTESIAN_POINT('',(0.0,56.1184106148314,-3.12638803734444E-013));
#490=CARTESIAN_POINT('',(-7.105427357601E-015,33.713986893953,-3.12638803734444E-013));
#491=VECTOR('',#591,1.0);
#492=CARTESIAN_POINT('',(2.1,56.1184106148258,-3.12638803734444E-013));
#493=CARTESIAN_POINT('',(0.0,56.1184106148314,-3.12638803734444E-013));
#494=VECTOR('',#592,1.0);
#495=CARTESIAN_POINT('',(2.09999999999999,33.713986893953,-3.12638803734444E-013));
#496=VECTOR('',#593,1.0);
#498=CARTESIAN_POINT('',(0.0,61.8999999988505,4.99999999999209));
#499=CARTESIAN_POINT('',(2.1,61.8999999988505,4.99999999999209));
#500=CARTESIAN_POINT('',(0.0,61.8999999988505,4.99999999999209));
#501=VECTOR('',#594,1.0);
#502=CARTESIAN_POINT('',(2.1,61.8999999988505,2.95339720257519));
#503=CARTESIAN_POINT('',(2.10000000000001,61.8999999988505,26.0699492305746));
#504=VECTOR('',#595,1.0);
#505=CARTESIAN_POINT('',(0.0,61.8999999988505,2.95339720257229));
#506=CARTESIAN_POINT('',(0.0,61.8999999988505,2.95339720257229));
#507=VECTOR('',#596,1.0);
#508=CARTESIAN_POINT('',(7.105427357601E-015,61.8999999988505,26.0699492305746));
#509=VECTOR('',#597,1.0);
#511=CARTESIAN_POINT('',(7.105427357601E-015,61.8999999988505,21.9651969952528));
#512=CARTESIAN_POINT('',(2.10000000000001,61.8999999988505,21.965196995252));
#513=CARTESIAN_POINT('',(7.105427357601E-015,61.8999999988505,21.9651969952528));
#514=VECTOR('',#598,1.0);
#515=CARTESIAN_POINT('',(2.10000000000001,61.8999999988505,26.0699492305746));
#516=VECTOR('',#599,1.0);
#517=CARTESIAN_POINT('',(7.105427357601E-015,61.8999999988505,26.0699492305746));
#518=VECTOR('',#600,1.0);
#520=CARTESIAN_POINT('',(-7.105427357601E-015,1.25563527381679,29.0499999999932));
#521=CARTESIAN_POINT('',(7.105427357601E-015,60.6507580760847,29.0499999999932));
#522=CARTESIAN_POINT('',(0.0,33.713986893953,29.0499999999932));
#523=VECTOR('',#601,1.0);
#524=CARTESIAN_POINT('',(7.105427357601E-015,61.176221430625,26.0699492305746));
#525=VECTOR('',#602,1.0);
#526=AXIS2_PLACEMENT_3D('',#603,#604,#605);
#527=CARTESIAN_POINT('',(-7.105427357601E-015,33.713986893953,-11.4448048706802));
#528=VECTOR('',#606,1.0);
#529=CARTESIAN_POINT('',(-7.105427357601E-015,-7.105427357601E-015,7.99999999999839));
#530=CARTESIAN_POINT('',(-7.105427357601E-015,-7.105427357601E-015,26.0699492305746));
#531=VECTOR('',#607,1.0);
#532=AXIS2_PLACEMENT_3D('',#608,#609,#610);
#533=CARTESIAN_POINT('',(-7.105427357601E-015,9.2370555648813E-014,21.9289384995438));
#534=CARTESIAN_POINT('',(-7.105427357601E-015,-7.105427357601E-015,26.0699492305746));
#535=VECTOR('',#611,1.0);
#536=CARTESIAN_POINT('',(-7.105427357601E-015,0.73017191928589,26.0699492305746));
#537=VECTOR('',#612,1.0);
#539=CARTESIAN_POINT('',(2.09999999999999,1.25563527381689,29.0499999999932));
#540=CARTESIAN_POINT('',(2.10000000000001,60.6507580760846,29.0499999999932));
#541=CARTESIAN_POINT('',(2.1,33.713986893953,29.0499999999932));
#542=VECTOR('',#613,1.0);
#543=CARTESIAN_POINT('',(2.09999999999999,-1.06581410364015E-014,21.928938499543));
#544=CARTESIAN_POINT('',(2.09999999999999,0.73017191928599,26.0699492305746));
#545=VECTOR('',#614,1.0);
#546=CARTESIAN_POINT('',(2.09999999999999,-1.06581410364015E-014,26.0699492305746));
#547=VECTOR('',#615,1.0);
#548=CARTESIAN_POINT('',(2.09999999999999,-1.06581410364015E-014,7.99999999999839));
#549=AXIS2_PLACEMENT_3D('',#616,#617,#618);
#550=CARTESIAN_POINT('',(2.09999999999999,-1.06581410364015E-014,26.0699492305746));
#551=VECTOR('',#619,1.0);
#552=CARTESIAN_POINT('',(2.09999999999999,33.713986893953,-11.4448048706773));
#553=VECTOR('',#620,1.0);
#554=AXIS2_PLACEMENT_3D('',#621,#622,#623);
#555=CARTESIAN_POINT('',(2.10000000000001,61.1762214306249,26.0699492305746));
#556=VECTOR('',#624,1.0);
#558=CARTESIAN_POINT('',(7.105427357601E-015,60.6507580760847,29.0499999999932));
#559=VECTOR('',#625,1.0);
#562=CARTESIAN_POINT('',(-7.105427357601E-015,-7.105427357601E-015,7.99999999999839));
#563=VECTOR('',#626,1.0);
#565=CARTESIAN_POINT('',(-7.105427357601E-015,9.2370555648813E-014,21.9289384995438));
#566=VECTOR('',#627,1.0);
#567=CARTESIAN_POINT('',(-7.105427357601E-015,1.25563527381679,29.0499999999932));
#568=VECTOR('',#628,1.0);
#574=DIRECTION('',(-1.0,1.66533453693773E-016,1.66533453693773E-016));
#575=CARTESIAN_POINT('',(2.09999999999999,-14.3090880212542,12.4999999999984));
#576=DIRECTION('',(1.0,-1.66533453693773E-016,-1.66533453693773E-016));
#577=DIRECTION('',(1.66533453693773E-016,1.0,-2.77333911991762E-032));
#578=DIRECTION('',(1.0,-1.66533453693773E-016,-1.66533453693773E-016));
#579=CARTESIAN_POINT('',(-7.105427357601E-015,-14.3090880212542,12.4999999999984));
#580=DIRECTION('',(1.0,-1.66533453693773E-016,-1.66533453693773E-016));
#581=DIRECTION('',(1.66533453693773E-016,1.0,-2.77333911991762E-032));
#582=DIRECTION('',(1.0,-1.66533453693773E-016,-1.66533453693773E-016));
#583=CARTESIAN_POINT('',(7.105427357601E-015,75.647727083718,10.9999999999921));
#584=DIRECTION('',(1.0,-1.66533453693773E-016,-1.66533453693773E-016));
#585=DIRECTION('',(1.66533453693773E-016,1.0,-2.77333911991762E-032));
#586=DIRECTION('',(1.0,-1.66533453693773E-016,-1.66533453693773E-016));
#587=CARTESIAN_POINT('',(2.10000000000001,75.647727083718,10.9999999999921));
#588=DIRECTION('',(1.0,-1.66533453693773E-016,-1.66533453693773E-016));
#589=DIRECTION('',(1.66533453693773E-016,1.0,-2.77333911991762E-032));
#590=DIRECTION('',(-1.0,1.66533453693773E-016,1.66533453693773E-016));
#591=DIRECTION('',(-1.66533453693773E-016,-1.0,2.77333911991762E-032));
#592=DIRECTION('',(-1.0,2.66992568859093E-012,1.66533453693773E-016));
#593=DIRECTION('',(-1.66533453693773E-016,-1.0,2.77333911991762E-032));
#594=DIRECTION('',(1.0,-1.66533453693773E-016,-1.66533453693773E-016));
#595=DIRECTION('',(-1.66533453693773E-016,-1.69688485914333E-046,-1.0));
#596=DIRECTION('',(-1.0,1.66533453693773E-016,-1.36362094722064E-012));
#597=DIRECTION('',(-1.66533453693773E-016,-1.69688485914333E-046,-1.0));
#598=DIRECTION('',(1.0,-1.66533453693773E-016,-4.08471458973981E-013));
#599=DIRECTION('',(-1.66533453693773E-016,-1.69688485914333E-046,-1.0));
#600=DIRECTION('',(-1.66533453693773E-016,-1.69688485914333E-046,-1.0));
#601=DIRECTION('',(1.66533453693773E-016,1.0,-2.77333911991762E-032));
#602=DIRECTION('',(-1.35085205578347E-016,0.173648177670384,-0.984807753011599));
#603=CARTESIAN_POINT('',(7.105427357601E-015,75.647727083718,10.9999999999921));
#604=DIRECTION('',(1.0,-1.66533453693773E-016,-1.66533453693773E-016));
#605=DIRECTION('',(1.66533453693773E-016,1.0,-2.77333911991762E-032));
#606=DIRECTION('',(2.2406209336792E-016,0.890536864553145,0.454911082379683));
#607=DIRECTION('',(1.66533453693773E-016,1.69688485914333E-046,1.0));
#608=CARTESIAN_POINT('',(-7.105427357601E-015,-14.3090880212542,12.4999999999984));
#609=DIRECTION('',(1.0,-1.66533453693773E-016,-1.66533453693773E-016));
#610=DIRECTION('',(1.66533453693773E-016,1.0,-2.77333911991762E-032));
#611=DIRECTION('',(1.66533453693773E-016,1.69688485914333E-046,1.0));
#612=DIRECTION('',(-1.92921667088089E-016,-0.173648177667356,-0.984807753012133));
#613=DIRECTION('',(1.66533453693773E-016,1.0,-2.77333911991762E-032));
#614=DIRECTION('',(-1.92921667088089E-016,-0.173648177667356,-0.984807753012133));
#615=DIRECTION('',(1.66533453693773E-016,1.69688485914333E-046,1.0));
#616=CARTESIAN_POINT('',(2.09999999999999,-14.3090880212542,12.4999999999984));
#617=DIRECTION('',(1.0,-1.66533453693773E-016,-1.66533453693773E-016));
#618=DIRECTION('',(1.66533453693773E-016,1.0,-2.77333911991762E-032));
#619=DIRECTION('',(1.66533453693773E-016,1.69688485914333E-046,1.0));
#620=DIRECTION('',(2.2406209336792E-016,0.890536864553145,0.454911082379683));
#621=CARTESIAN_POINT('',(2.10000000000001,75.647727083718,10.9999999999921));
#622=DIRECTION('',(1.0,-1.66533453693773E-016,-1.66533453693773E-016));
#623=DIRECTION('',(1.66533453693773E-016,1.0,-2.77333911991762E-032));
#624=DIRECTION('',(-1.35085205578347E-016,0.173648177670384,-0.984807753011599));
#625=DIRECTION('',(1.0,-7.2161708180557E-014,-1.66533453693773E-016));
#626=DIRECTION('',(1.0,-1.66533453693773E-016,-1.66533453693773E-016));
#627=DIRECTION('',(-1.0,1.66533453693773E-016,4.08562540063053E-013));
#628=DIRECTION('',(-1.0,-7.18447013253108E-014,1.66533453693773E-016));
ENDSEC;
END-ISO-10303-21;

