ISO-10303-21;
HEADER;
FILE_DESCRIPTION(('STEP AP214'),'1');
FILE_NAME('cctmp_6AD6B8C3-27A0-4B1D-B98F-6A36FBE80188_2023_07_24_21_50_29_0739..stp','2023-07-24T19:50:29',('SIEMENS A&D'),('CADClick - www.CADClick.com'),'Spatial InterOp 3D postprocessed',' ','unknown authorization');
FILE_SCHEMA(('AUTOMOTIVE_DESIGN'));
ENDSEC;
DATA;
#1=MECHANICAL_DESIGN_GEOMETRIC_PRESENTATION_REPRESENTATION(' ',(#10,#11,#12,#13,#14,#15,#16,#17,#18,#19,#20,#21,#22,#23,#24,#25,#26,#27),#6);
#2=PRODUCT_DEFINITION_CONTEXT('',#28,'design');
#3=APPLICATION_PROTOCOL_DEFINITION('INTERNATIONAL STANDARD','automotive_design',1994,#28);
#4=PRODUCT_CATEGORY_RELATIONSHIP('NONE','NONE',#29,#30);
#5=SHAPE_DEFINITION_REPRESENTATION(#31,#32);
#6= (GEOMETRIC_REPRESENTATION_CONTEXT(3)GLOBAL_UNCERTAINTY_ASSIGNED_CONTEXT((#35))GLOBAL_UNIT_ASSIGNED_CONTEXT((#37,#38,#39))REPRESENTATION_CONTEXT('NONE','WORKSPACE'));
#10=STYLED_ITEM('',(#41),#42);
#11=STYLED_ITEM('',(#43),#44);
#12=STYLED_ITEM('',(#45),#46);
#13=STYLED_ITEM('',(#47),#48);
#14=STYLED_ITEM('',(#49),#50);
#15=STYLED_ITEM('',(#51),#52);
#16=STYLED_ITEM('',(#53),#54);
#17=STYLED_ITEM('',(#55),#56);
#18=STYLED_ITEM('',(#57),#58);
#19=STYLED_ITEM('',(#59),#60);
#20=STYLED_ITEM('',(#61),#62);
#21=STYLED_ITEM('',(#63),#64);
#22=STYLED_ITEM('',(#65),#66);
#23=STYLED_ITEM('',(#67),#68);
#24=STYLED_ITEM('',(#69),#70);
#25=STYLED_ITEM('',(#71),#72);
#26=STYLED_ITEM('',(#73),#74);
#27=STYLED_ITEM('',(#75),#76);
#28=APPLICATION_CONTEXT(' ');
#29=PRODUCT_CATEGORY('part','NONE');
#30=PRODUCT_RELATED_PRODUCT_CATEGORY('detail',' ',(#77));
#31=PRODUCT_DEFINITION_SHAPE('NONE','NONE',#78);
#32=ADVANCED_BREP_SHAPE_REPRESENTATION('2023_07_24_21_50_29_0739',(#76,#79),#6);
#35=UNCERTAINTY_MEASURE_WITH_UNIT(LENGTH_MEASURE(1.0E-006),#37,'','');
#37= (CONVERSION_BASED_UNIT('MILLIMETRE',#82)LENGTH_UNIT()NAMED_UNIT(#85));
#38= (NAMED_UNIT(#87)PLANE_ANGLE_UNIT()SI_UNIT($,.RADIAN.));
#39= (NAMED_UNIT(#87)SOLID_ANGLE_UNIT()SI_UNIT($,.STERADIAN.));
#41=PRESENTATION_STYLE_ASSIGNMENT((#93));
#42=ADVANCED_FACE('',(#94),#95,.F.);
#43=PRESENTATION_STYLE_ASSIGNMENT((#96));
#44=ADVANCED_FACE('',(#97),#98,.F.);
#45=PRESENTATION_STYLE_ASSIGNMENT((#99));
#46=ADVANCED_FACE('',(#100),#101,.F.);
#47=PRESENTATION_STYLE_ASSIGNMENT((#102));
#48=ADVANCED_FACE('',(#103),#104,.F.);
#49=PRESENTATION_STYLE_ASSIGNMENT((#105));
#50=ADVANCED_FACE('',(#106),#107,.F.);
#51=PRESENTATION_STYLE_ASSIGNMENT((#108));
#52=ADVANCED_FACE('',(#109),#110,.F.);
#53=PRESENTATION_STYLE_ASSIGNMENT((#111));
#54=ADVANCED_FACE('',(#112),#113,.F.);
#55=PRESENTATION_STYLE_ASSIGNMENT((#114));
#56=ADVANCED_FACE('',(#115),#116,.F.);
#57=PRESENTATION_STYLE_ASSIGNMENT((#117));
#58=ADVANCED_FACE('',(#118),#119,.F.);
#59=PRESENTATION_STYLE_ASSIGNMENT((#120));
#60=ADVANCED_FACE('',(#121),#122,.F.);
#61=PRESENTATION_STYLE_ASSIGNMENT((#123));
#62=ADVANCED_FACE('',(#124),#125,.F.);
#63=PRESENTATION_STYLE_ASSIGNMENT((#126));
#64=ADVANCED_FACE('',(#127),#128,.F.);
#65=PRESENTATION_STYLE_ASSIGNMENT((#129));
#66=ADVANCED_FACE('',(#130),#131,.F.);
#67=PRESENTATION_STYLE_ASSIGNMENT((#132));
#68=ADVANCED_FACE('',(#133),#134,.F.);
#69=PRESENTATION_STYLE_ASSIGNMENT((#135));
#70=ADVANCED_FACE('',(#136),#137,.T.);
#71=PRESENTATION_STYLE_ASSIGNMENT((#138));
#72=ADVANCED_FACE('',(#139),#140,.T.);
#73=PRESENTATION_STYLE_ASSIGNMENT((#141));
#74=ADVANCED_FACE('',(#142),#143,.F.);
#75=PRESENTATION_STYLE_ASSIGNMENT((#144));
#76=MANIFOLD_SOLID_BREP('2023_07_24_21_50_29_0739',#145);
#77=PRODUCT('2023_07_24_21_50_29_0739','','PART--DESC',(#146));
#78=PRODUCT_DEFINITION('','NONE',#147,#2);
#79=AXIS2_PLACEMENT_3D('',#148,#149,#150);
#82=LENGTH_MEASURE_WITH_UNIT(LENGTH_MEASURE(1.0),#151);
#85=DIMENSIONAL_EXPONENTS(1.0,0.0,0.0,0.0,0.0,0.0,0.0);
#87=DIMENSIONAL_EXPONENTS(0.0,0.0,0.0,0.0,0.0,0.0,0.0);
#93=SURFACE_STYLE_USAGE(.BOTH.,#152);
#94=FACE_OUTER_BOUND('',#153,.T.);
#95=CYLINDRICAL_SURFACE('',#154,15.0000000000001);
#96=SURFACE_STYLE_USAGE(.BOTH.,#152);
#97=FACE_OUTER_BOUND('',#156,.T.);
#98=CYLINDRICAL_SURFACE('',#157,15.0000000000127);
#99=SURFACE_STYLE_USAGE(.BOTH.,#152);
#100=FACE_OUTER_BOUND('',#159,.T.);
#101=PLANE('',#160);
#102=SURFACE_STYLE_USAGE(.BOTH.,#152);
#103=FACE_OUTER_BOUND('',#162,.T.);
#104=PLANE('',#163);
#105=SURFACE_STYLE_USAGE(.BOTH.,#152);
#106=FACE_OUTER_BOUND('',#165,.T.);
#107=PLANE('',#166);
#108=SURFACE_STYLE_USAGE(.BOTH.,#152);
#109=FACE_OUTER_BOUND('',#168,.T.);
#110=PLANE('',#169);
#111=SURFACE_STYLE_USAGE(.BOTH.,#152);
#112=FACE_OUTER_BOUND('',#171,.T.);
#113=PLANE('',#172);
#114=SURFACE_STYLE_USAGE(.BOTH.,#152);
#115=FACE_OUTER_BOUND('',#174,.T.);
#116=CYLINDRICAL_SURFACE('',#175,15.0000000000127);
#117=SURFACE_STYLE_USAGE(.BOTH.,#152);
#118=FACE_OUTER_BOUND('',#177,.T.);
#119=CYLINDRICAL_SURFACE('',#178,15.0000000000001);
#120=SURFACE_STYLE_USAGE(.BOTH.,#152);
#121=FACE_OUTER_BOUND('',#180,.T.);
#122=PLANE('',#181);
#123=SURFACE_STYLE_USAGE(.BOTH.,#152);
#124=FACE_OUTER_BOUND('',#183,.T.);
#125=PLANE('',#184);
#126=SURFACE_STYLE_USAGE(.BOTH.,#152);
#127=FACE_OUTER_BOUND('',#186,.T.);
#128=PLANE('',#187);
#129=SURFACE_STYLE_USAGE(.BOTH.,#152);
#130=FACE_OUTER_BOUND('',#189,.T.);
#131=PLANE('',#190);
#132=SURFACE_STYLE_USAGE(.BOTH.,#152);
#133=FACE_OUTER_BOUND('',#192,.T.);
#134=PLANE('',#193);
#135=SURFACE_STYLE_USAGE(.BOTH.,#152);
#136=FACE_OUTER_BOUND('',#195,.T.);
#137=PLANE('',#196);
#138=SURFACE_STYLE_USAGE(.BOTH.,#152);
#139=FACE_OUTER_BOUND('',#198,.T.);
#140=PLANE('',#199);
#141=SURFACE_STYLE_USAGE(.BOTH.,#152);
#142=FACE_OUTER_BOUND('',#201,.T.);
#143=PLANE('',#202);
#144=SURFACE_STYLE_USAGE(.BOTH.,#152);
#145=CLOSED_SHELL('',(#42,#44,#46,#48,#50,#52,#54,#56,#58,#60,#62,#64,#66,#68,#70,#72,#74));
#146=PRODUCT_CONTEXT('',#28,'mechanical');
#147=PRODUCT_DEFINITION_FORMATION_WITH_SPECIFIED_SOURCE(' ','NONE',#77,.NOT_KNOWN.);
#148=CARTESIAN_POINT('',(0.0,0.0,0.0));
#149=DIRECTION('',(0.0,0.0,1.0));
#150=DIRECTION('',(1.0,0.0,0.0));
#151= (NAMED_UNIT(#85)LENGTH_UNIT()SI_UNIT(.MILLI.,.METRE.));
#152=SURFACE_SIDE_STYLE('',(#205));
#153=EDGE_LOOP('',(#206,#207,#208,#209));
#154=AXIS2_PLACEMENT_3D('',#210,#211,#212);
#156=EDGE_LOOP('',(#214,#215,#216,#217));
#157=AXIS2_PLACEMENT_3D('',#218,#219,#220);
#159=EDGE_LOOP('',(#222,#223,#224,#225,#226,#227,#228,#229,#230,#231,#232,#233,#234,#235,#236));
#160=AXIS2_PLACEMENT_3D('',#237,#238,#239);
#162=EDGE_LOOP('',(#241,#242,#243,#244));
#163=AXIS2_PLACEMENT_3D('',#245,#246,#247);
#165=EDGE_LOOP('',(#249,#250,#251,#252));
#166=AXIS2_PLACEMENT_3D('',#253,#254,#255);
#168=EDGE_LOOP('',(#257,#258,#259,#260));
#169=AXIS2_PLACEMENT_3D('',#261,#262,#263);
#171=EDGE_LOOP('',(#265,#266,#267,#268));
#172=AXIS2_PLACEMENT_3D('',#269,#270,#271);
#174=EDGE_LOOP('',(#273,#274,#275,#276));
#175=AXIS2_PLACEMENT_3D('',#277,#278,#279);
#177=EDGE_LOOP('',(#281,#282,#283,#284));
#178=AXIS2_PLACEMENT_3D('',#285,#286,#287);
#180=EDGE_LOOP('',(#289,#290,#291,#292));
#181=AXIS2_PLACEMENT_3D('',#293,#294,#295);
#183=EDGE_LOOP('',(#297,#298,#299,#300));
#184=AXIS2_PLACEMENT_3D('',#301,#302,#303);
#186=EDGE_LOOP('',(#305,#306,#307,#308));
#187=AXIS2_PLACEMENT_3D('',#309,#310,#311);
#189=EDGE_LOOP('',(#313,#314,#315,#316));
#190=AXIS2_PLACEMENT_3D('',#317,#318,#319);
#192=EDGE_LOOP('',(#321,#322,#323,#324));
#193=AXIS2_PLACEMENT_3D('',#325,#326,#327);
#195=EDGE_LOOP('',(#329,#330,#331,#332,#333,#334,#335,#336,#337,#338,#339,#340,#341,#342,#343));
#196=AXIS2_PLACEMENT_3D('',#344,#345,#346);
#198=EDGE_LOOP('',(#348,#349,#350,#351));
#199=AXIS2_PLACEMENT_3D('',#352,#353,#354);
#201=EDGE_LOOP('',(#356,#357,#358,#359));
#202=AXIS2_PLACEMENT_3D('',#360,#361,#362);
#205=SURFACE_STYLE_FILL_AREA(#364);
#206=ORIENTED_EDGE('',*,*,#365,.F.);
#207=ORIENTED_EDGE('',*,*,#366,.T.);
#208=ORIENTED_EDGE('',*,*,#367,.T.);
#209=ORIENTED_EDGE('',*,*,#368,.F.);
#210=CARTESIAN_POINT('',(1.4,64.5477270848667,10.9999999999984));
#211=DIRECTION('',(1.0,-3.08148791101958E-033,5.55111512312578E-017));
#212=DIRECTION('',(5.83874360135337E-048,1.0,5.55111512312578E-017));
#214=ORIENTED_EDGE('',*,*,#370,.F.);
#215=ORIENTED_EDGE('',*,*,#371,.F.);
#216=ORIENTED_EDGE('',*,*,#372,.T.);
#217=ORIENTED_EDGE('',*,*,#373,.T.);
#218=CARTESIAN_POINT('',(1.4,-14.3090880212678,12.4999999999979));
#219=DIRECTION('',(1.0,-3.08148791101958E-033,5.55111512312578E-017));
#220=DIRECTION('',(5.83874360134846E-048,1.0,5.55111512312578E-017));
#222=ORIENTED_EDGE('',*,*,#375,.F.);
#223=ORIENTED_EDGE('',*,*,#376,.F.);
#224=ORIENTED_EDGE('',*,*,#377,.T.);
#225=ORIENTED_EDGE('',*,*,#378,.F.);
#226=ORIENTED_EDGE('',*,*,#379,.F.);
#227=ORIENTED_EDGE('',*,*,#380,.T.);
#228=ORIENTED_EDGE('',*,*,#381,.F.);
#229=ORIENTED_EDGE('',*,*,#373,.F.);
#230=ORIENTED_EDGE('',*,*,#382,.F.);
#231=ORIENTED_EDGE('',*,*,#383,.T.);
#232=ORIENTED_EDGE('',*,*,#384,.F.);
#233=ORIENTED_EDGE('',*,*,#385,.F.);
#234=ORIENTED_EDGE('',*,*,#386,.T.);
#235=ORIENTED_EDGE('',*,*,#387,.F.);
#236=ORIENTED_EDGE('',*,*,#366,.F.);
#237=CARTESIAN_POINT('',(2.2,3.6615064310789,10.2654382455882));
#238=DIRECTION('',(-1.0,3.08148791101958E-033,-5.55111512312578E-017));
#239=DIRECTION('',(5.55111512312578E-017,5.55111512312578E-017,-1.0));
#241=ORIENTED_EDGE('',*,*,#389,.T.);
#242=ORIENTED_EDGE('',*,*,#390,.T.);
#243=ORIENTED_EDGE('',*,*,#379,.T.);
#244=ORIENTED_EDGE('',*,*,#391,.T.);
#245=CARTESIAN_POINT('',(1.4,19.882973023394,35.2999999999997));
#246=DIRECTION('',(5.21634191833435E-017,0.342020143325669,-0.939692620785908));
#247=DIRECTION('',(-1.0,3.08148791101958E-033,-5.55111512312578E-017));
#249=ORIENTED_EDGE('',*,*,#393,.F.);
#250=ORIENTED_EDGE('',*,*,#394,.T.);
#251=ORIENTED_EDGE('',*,*,#395,.F.);
#252=ORIENTED_EDGE('',*,*,#386,.F.);
#253=CARTESIAN_POINT('',(1.4,50.5653058049047,2.55927164105695));
#254=DIRECTION('',(-2.60916497124037E-017,-0.882652902452808,0.470025375689051));
#255=DIRECTION('',(1.0,-3.08148791101958E-033,5.55111512312578E-017));
#257=ORIENTED_EDGE('',*,*,#385,.T.);
#258=ORIENTED_EDGE('',*,*,#397,.T.);
#259=ORIENTED_EDGE('',*,*,#398,.T.);
#260=ORIENTED_EDGE('',*,*,#393,.T.);
#261=CARTESIAN_POINT('',(2.2,53.1656467783244,-2.75418576833886E-013));
#262=DIRECTION('',(-5.55111512312578E-017,-5.55111512312578E-017,1.0));
#263=DIRECTION('',(0.0,1.0,5.55111512312578E-017));
#265=ORIENTED_EDGE('',*,*,#400,.F.);
#266=ORIENTED_EDGE('',*,*,#401,.T.);
#267=ORIENTED_EDGE('',*,*,#402,.T.);
#268=ORIENTED_EDGE('',*,*,#377,.F.);
#269=CARTESIAN_POINT('',(1.4,50.7999999999991,28.0631896507664));
#270=DIRECTION('',(5.21634191833436E-017,-0.342020143325669,-0.939692620785908));
#271=DIRECTION('',(-1.89859319002877E-017,-0.939692620785908,0.342020143325669));
#273=ORIENTED_EDGE('',*,*,#370,.T.);
#274=ORIENTED_EDGE('',*,*,#381,.T.);
#275=ORIENTED_EDGE('',*,*,#404,.T.);
#276=ORIENTED_EDGE('',*,*,#405,.F.);
#277=CARTESIAN_POINT('',(1.4,-14.3090880212678,12.4999999999979));
#278=DIRECTION('',(1.0,-3.08148791101958E-033,5.55111512312578E-017));
#279=DIRECTION('',(5.83874360134846E-048,1.0,5.55111512312578E-017));
#281=ORIENTED_EDGE('',*,*,#365,.T.);
#282=ORIENTED_EDGE('',*,*,#407,.F.);
#283=ORIENTED_EDGE('',*,*,#408,.T.);
#284=ORIENTED_EDGE('',*,*,#375,.T.);
#285=CARTESIAN_POINT('',(1.4,64.5477270848667,10.9999999999984));
#286=DIRECTION('',(1.0,-3.08148791101958E-033,5.55111512312578E-017));
#287=DIRECTION('',(5.83874360135337E-048,1.0,5.55111512312578E-017));
#289=ORIENTED_EDGE('',*,*,#367,.F.);
#290=ORIENTED_EDGE('',*,*,#387,.T.);
#291=ORIENTED_EDGE('',*,*,#395,.T.);
#292=ORIENTED_EDGE('',*,*,#410,.T.);
#293=CARTESIAN_POINT('',(1.4,50.7999999999991,3.49932239243505));
#294=DIRECTION('',(9.86076131526897E-032,-1.0,-1.83186799063265E-015));
#295=DIRECTION('',(-5.55111512312578E-017,-1.83186799063265E-015,1.0));
#297=ORIENTED_EDGE('',*,*,#376,.T.);
#298=ORIENTED_EDGE('',*,*,#408,.F.);
#299=ORIENTED_EDGE('',*,*,#412,.T.);
#300=ORIENTED_EDGE('',*,*,#400,.T.);
#301=CARTESIAN_POINT('',(1.4,50.7999999999991,16.9999999999983));
#302=DIRECTION('',(0.0,-1.0,-5.55111512312578E-017));
#303=DIRECTION('',(1.0,-3.08148791101957E-033,5.55111512312578E-017));
#305=ORIENTED_EDGE('',*,*,#402,.F.);
#306=ORIENTED_EDGE('',*,*,#414,.T.);
#307=ORIENTED_EDGE('',*,*,#391,.F.);
#308=ORIENTED_EDGE('',*,*,#378,.T.);
#309=CARTESIAN_POINT('',(1.4,19.882973023394,35.2999999999997));
#310=DIRECTION('',(5.55111512312578E-017,5.55111512312578E-017,-1.0));
#311=DIRECTION('',(-1.0,3.08148791101958E-033,-5.55111512312578E-017));
#313=ORIENTED_EDGE('',*,*,#416,.F.);
#314=ORIENTED_EDGE('',*,*,#382,.T.);
#315=ORIENTED_EDGE('',*,*,#372,.F.);
#316=ORIENTED_EDGE('',*,*,#417,.T.);
#317=CARTESIAN_POINT('',(1.4,0.0,7.70274579420782));
#318=DIRECTION('',(0.0,1.0,5.55111512312578E-017));
#319=DIRECTION('',(-5.55111512312578E-017,-5.55111512312578E-017,1.0));
#321=ORIENTED_EDGE('',*,*,#404,.F.);
#322=ORIENTED_EDGE('',*,*,#380,.F.);
#323=ORIENTED_EDGE('',*,*,#390,.F.);
#324=ORIENTED_EDGE('',*,*,#419,.T.);
#325=CARTESIAN_POINT('',(1.4,0.0,28.0631896507664));
#326=DIRECTION('',(0.0,1.0,5.55111512312578E-017));
#327=DIRECTION('',(-5.55111512312578E-017,-5.55111512312578E-017,1.0));
#329=ORIENTED_EDGE('',*,*,#410,.F.);
#330=ORIENTED_EDGE('',*,*,#394,.F.);
#331=ORIENTED_EDGE('',*,*,#398,.F.);
#332=ORIENTED_EDGE('',*,*,#421,.F.);
#333=ORIENTED_EDGE('',*,*,#422,.T.);
#334=ORIENTED_EDGE('',*,*,#417,.F.);
#335=ORIENTED_EDGE('',*,*,#371,.T.);
#336=ORIENTED_EDGE('',*,*,#405,.T.);
#337=ORIENTED_EDGE('',*,*,#419,.F.);
#338=ORIENTED_EDGE('',*,*,#389,.F.);
#339=ORIENTED_EDGE('',*,*,#414,.F.);
#340=ORIENTED_EDGE('',*,*,#401,.F.);
#341=ORIENTED_EDGE('',*,*,#412,.F.);
#342=ORIENTED_EDGE('',*,*,#407,.T.);
#343=ORIENTED_EDGE('',*,*,#368,.T.);
#344=CARTESIAN_POINT('',(-1.33226762955019E-015,28.6225955539,25.3711229499396));
#345=DIRECTION('',(-1.0,3.08148791101958E-033,-5.55111512312578E-017));
#346=DIRECTION('',(5.55111512312578E-017,5.55111512312578E-017,-1.0));
#348=ORIENTED_EDGE('',*,*,#422,.F.);
#349=ORIENTED_EDGE('',*,*,#424,.F.);
#350=ORIENTED_EDGE('',*,*,#383,.F.);
#351=ORIENTED_EDGE('',*,*,#416,.T.);
#352=CARTESIAN_POINT('',(-4.44089209850063E-016,4.6118365096448,6.40000000000373));
#353=DIRECTION('',(5.55111512312578E-017,-1.91175047277283E-015,-1.0));
#354=DIRECTION('',(-1.09204957521541E-031,-1.0,1.91175047277283E-015));
#356=ORIENTED_EDGE('',*,*,#421,.T.);
#357=ORIENTED_EDGE('',*,*,#397,.F.);
#358=ORIENTED_EDGE('',*,*,#384,.T.);
#359=ORIENTED_EDGE('',*,*,#424,.T.);
#360=CARTESIAN_POINT('',(-2.20000240000002,4.6118365096448,6.40000000000374));
#361=DIRECTION('',(9.63941025149367E-018,0.984807753012232,-0.173648177666793));
#362=DIRECTION('',(-1.0,3.08148791101958E-033,-5.55111512312578E-017));
#364=FILL_AREA_STYLE('',(#427));
#365=EDGE_CURVE('',#428,#429,#430,.T.);
#366=EDGE_CURVE('',#428,#431,#432,.T.);
#367=EDGE_CURVE('',#431,#433,#434,.T.);
#368=EDGE_CURVE('',#429,#433,#435,.T.);
#370=EDGE_CURVE('',#437,#438,#439,.T.);
#371=EDGE_CURVE('',#440,#437,#441,.T.);
#372=EDGE_CURVE('',#440,#442,#443,.T.);
#373=EDGE_CURVE('',#442,#438,#444,.T.);
#375=EDGE_CURVE('',#446,#428,#447,.T.);
#376=EDGE_CURVE('',#448,#446,#449,.T.);
#377=EDGE_CURVE('',#448,#450,#451,.T.);
#378=EDGE_CURVE('',#452,#450,#453,.T.);
#379=EDGE_CURVE('',#454,#452,#455,.T.);
#380=EDGE_CURVE('',#454,#456,#457,.T.);
#381=EDGE_CURVE('',#438,#456,#458,.T.);
#382=EDGE_CURVE('',#459,#442,#460,.T.);
#383=EDGE_CURVE('',#459,#461,#462,.T.);
#384=EDGE_CURVE('',#463,#461,#464,.T.);
#385=EDGE_CURVE('',#465,#463,#466,.T.);
#386=EDGE_CURVE('',#465,#467,#468,.T.);
#387=EDGE_CURVE('',#431,#467,#469,.T.);
#389=EDGE_CURVE('',#471,#472,#473,.T.);
#390=EDGE_CURVE('',#472,#454,#474,.T.);
#391=EDGE_CURVE('',#452,#471,#475,.T.);
#393=EDGE_CURVE('',#477,#465,#478,.T.);
#394=EDGE_CURVE('',#477,#479,#480,.T.);
#395=EDGE_CURVE('',#467,#479,#481,.T.);
#397=EDGE_CURVE('',#463,#483,#484,.T.);
#398=EDGE_CURVE('',#483,#477,#485,.T.);
#400=EDGE_CURVE('',#487,#448,#488,.T.);
#401=EDGE_CURVE('',#487,#489,#490,.T.);
#402=EDGE_CURVE('',#489,#450,#491,.T.);
#404=EDGE_CURVE('',#456,#493,#494,.T.);
#405=EDGE_CURVE('',#437,#493,#495,.T.);
#407=EDGE_CURVE('',#497,#429,#498,.T.);
#408=EDGE_CURVE('',#497,#446,#499,.T.);
#410=EDGE_CURVE('',#479,#433,#501,.T.);
#412=EDGE_CURVE('',#497,#487,#503,.T.);
#414=EDGE_CURVE('',#489,#471,#505,.T.);
#416=EDGE_CURVE('',#459,#507,#508,.T.);
#417=EDGE_CURVE('',#440,#507,#509,.T.);
#419=EDGE_CURVE('',#472,#493,#511,.T.);
#421=EDGE_CURVE('',#513,#483,#514,.T.);
#422=EDGE_CURVE('',#513,#507,#515,.T.);
#424=EDGE_CURVE('',#461,#513,#517,.T.);
#427=FILL_AREA_STYLE_COLOUR('',#520);
#428=VERTEX_POINT('',#521);
#429=VERTEX_POINT('',#522);
#430=LINE('',#523,#524);
#431=VERTEX_POINT('',#525);
#432=CIRCLE('',#526,15.0000000000001);
#433=VERTEX_POINT('',#527);
#434=LINE('',#528,#529);
#435=CIRCLE('',#530,15.0000000000001);
#437=VERTEX_POINT('',#532);
#438=VERTEX_POINT('',#533);
#439=LINE('',#534,#535);
#440=VERTEX_POINT('',#536);
#441=CIRCLE('',#537,15.0000000000127);
#442=VERTEX_POINT('',#538);
#443=LINE('',#539,#540);
#444=CIRCLE('',#541,15.0000000000127);
#446=VERTEX_POINT('',#543);
#447=CIRCLE('',#544,15.0000000000001);
#448=VERTEX_POINT('',#545);
#449=LINE('',#546,#547);
#450=VERTEX_POINT('',#548);
#451=LINE('',#549,#550);
#452=VERTEX_POINT('',#551);
#453=LINE('',#552,#553);
#454=VERTEX_POINT('',#554);
#455=LINE('',#555,#556);
#456=VERTEX_POINT('',#557);
#457=LINE('',#558,#559);
#458=CIRCLE('',#560,15.0000000000127);
#459=VERTEX_POINT('',#561);
#460=LINE('',#562,#563);
#461=VERTEX_POINT('',#564);
#462=LINE('',#565,#566);
#463=VERTEX_POINT('',#567);
#464=LINE('',#568,#569);
#465=VERTEX_POINT('',#570);
#466=LINE('',#571,#572);
#467=VERTEX_POINT('',#573);
#468=LINE('',#574,#575);
#469=LINE('',#576,#577);
#471=VERTEX_POINT('',#579);
#472=VERTEX_POINT('',#580);
#473=LINE('',#581,#582);
#474=LINE('',#583,#584);
#475=LINE('',#585,#586);
#477=VERTEX_POINT('',#588);
#478=LINE('',#589,#590);
#479=VERTEX_POINT('',#591);
#480=LINE('',#592,#593);
#481=LINE('',#594,#595);
#483=VERTEX_POINT('',#597);
#484=LINE('',#598,#599);
#485=LINE('',#600,#601);
#487=VERTEX_POINT('',#603);
#488=LINE('',#604,#605);
#489=VERTEX_POINT('',#606);
#490=LINE('',#607,#608);
#491=LINE('',#609,#610);
#493=VERTEX_POINT('',#612);
#494=LINE('',#613,#614);
#495=CIRCLE('',#615,15.0000000000127);
#497=VERTEX_POINT('',#617);
#498=CIRCLE('',#618,15.0000000000001);
#499=LINE('',#619,#620);
#501=LINE('',#622,#623);
#503=LINE('',#625,#626);
#505=LINE('',#628,#629);
#507=VERTEX_POINT('',#631);
#508=LINE('',#632,#633);
#509=LINE('',#634,#635);
#511=LINE('',#637,#638);
#513=VERTEX_POINT('',#640);
#514=LINE('',#641,#642);
#515=LINE('',#643,#644);
#517=LINE('',#646,#647);
#520=COLOUR_RGB('',0.560784339904785,0.588235318660736,0.600000023841858);
#521=CARTESIAN_POINT('',(2.2,49.5477270848666,10.9999999999984));
#522=CARTESIAN_POINT('',(-4.44089209850063E-016,49.5477270848666,10.9999999999984));
#523=CARTESIAN_POINT('',(1.1,49.5477270848666,10.9999999999984));
#524=VECTOR('',#650,1.0);
#525=CARTESIAN_POINT('',(2.2,50.7999999999991,4.99999999999844));
#526=AXIS2_PLACEMENT_3D('',#651,#652,#653);
#527=CARTESIAN_POINT('',(-4.44089209850063E-016,50.7999999999991,4.99999999999844));
#528=CARTESIAN_POINT('',(1.4,50.7999999999991,4.99999999999844));
#529=VECTOR('',#654,1.0);
#530=AXIS2_PLACEMENT_3D('',#655,#656,#657);
#532=CARTESIAN_POINT('',(-8.88178419700125E-016,0.690911978744895,12.4999999999979));
#533=CARTESIAN_POINT('',(2.2,0.690911978744895,12.4999999999979));
#534=CARTESIAN_POINT('',(1.1,0.690911978744895,12.4999999999979));
#535=VECTOR('',#658,1.0);
#536=CARTESIAN_POINT('',(-4.44089209850063E-016,0.0,7.99999999999886));
#537=AXIS2_PLACEMENT_3D('',#659,#660,#661);
#538=CARTESIAN_POINT('',(2.2,0.0,7.99999999999888));
#539=CARTESIAN_POINT('',(1.4,0.0,7.99999999999888));
#540=VECTOR('',#662,1.0);
#541=AXIS2_PLACEMENT_3D('',#663,#664,#665);
#543=CARTESIAN_POINT('',(2.2,50.7999999999991,16.9999999999983));
#544=AXIS2_PLACEMENT_3D('',#666,#667,#668);
#545=CARTESIAN_POINT('',(2.2,50.7999999999991,28.0631896507664));
#546=CARTESIAN_POINT('',(2.2,50.7999999999991,-0.217225000000268));
#547=VECTOR('',#669,1.0);
#548=CARTESIAN_POINT('',(2.2,30.9170269766051,35.2999999999997));
#549=CARTESIAN_POINT('',(2.2,42.9,30.9385545014691));
#550=VECTOR('',#670,1.0);
#551=CARTESIAN_POINT('',(2.2,19.882973023394,35.2999999999997));
#552=CARTESIAN_POINT('',(2.2,42.9,35.2999999999997));
#553=VECTOR('',#671,1.0);
#554=CARTESIAN_POINT('',(2.2,0.0,28.0631896507664));
#555=CARTESIAN_POINT('',(2.2,42.9,43.6775127007865));
#556=VECTOR('',#672,1.0);
#557=CARTESIAN_POINT('',(2.2,0.0,16.999999999997));
#558=CARTESIAN_POINT('',(2.2,0.0,-0.21722500000027));
#559=VECTOR('',#673,1.0);
#560=AXIS2_PLACEMENT_3D('',#674,#675,#676);
#561=CARTESIAN_POINT('',(2.2,0.0,6.40000000000374));
#562=CARTESIAN_POINT('',(2.2,0.0,-0.21722500000027));
#563=VECTOR('',#677,1.0);
#564=CARTESIAN_POINT('',(2.2,4.6118365096448,6.40000000000374));
#565=CARTESIAN_POINT('',(2.2,42.9,6.40000000000365));
#566=VECTOR('',#678,1.0);
#567=CARTESIAN_POINT('',(2.2,3.4833438331108,-2.78194134395449E-013));
#568=CARTESIAN_POINT('',(2.2,3.4450412047264,-0.21722500000027));
#569=VECTOR('',#679,1.0);
#570=CARTESIAN_POINT('',(2.2,49.2024568172274,-2.75640621438811E-013));
#571=CARTESIAN_POINT('',(2.2,42.9,-2.76001443921814E-013));
#572=VECTOR('',#680,1.0);
#573=CARTESIAN_POINT('',(2.2,50.7999999999991,2.99999999999969));
#574=CARTESIAN_POINT('',(2.2,49.0867813779348,-0.217225000000268));
#575=VECTOR('',#681,1.0);
#576=CARTESIAN_POINT('',(2.2,50.7999999999991,-0.217225000000268));
#577=VECTOR('',#682,1.0);
#579=CARTESIAN_POINT('',(-1.77635683940025E-015,19.882973023394,35.2999999999997));
#580=CARTESIAN_POINT('',(-1.77635683940025E-015,0.0,28.0631896507664));
#581=CARTESIAN_POINT('',(-2.22044604925031E-015,42.9,43.6775127007865));
#582=VECTOR('',#683,1.0);
#583=CARTESIAN_POINT('',(2.2,0.0,28.0631896507664));
#584=VECTOR('',#684,1.0);
#585=CARTESIAN_POINT('',(2.2,19.882973023394,35.2999999999997));
#586=VECTOR('',#685,1.0);
#588=CARTESIAN_POINT('',(0.0,49.2024568172274,-2.75751643741273E-013));
#589=CARTESIAN_POINT('',(2.2,49.2024568172274,-2.75640621438811E-013));
#590=VECTOR('',#686,1.0);
#591=CARTESIAN_POINT('',(0.0,50.7999999999991,2.99999999999969));
#592=CARTESIAN_POINT('',(0.0,49.0867813779348,-0.217225000000268));
#593=VECTOR('',#687,1.0);
#594=CARTESIAN_POINT('',(2.2,50.7999999999991,2.99999999999969));
#595=VECTOR('',#688,1.0);
#597=CARTESIAN_POINT('',(0.0,3.4833438331108,-2.78305156697911E-013));
#598=CARTESIAN_POINT('',(2.2,3.4833438331108,-2.78194134395449E-013));
#599=VECTOR('',#689,1.0);
#600=CARTESIAN_POINT('',(0.0,42.9,-2.76112466224276E-013));
#601=VECTOR('',#690,1.0);
#603=CARTESIAN_POINT('',(-1.77635683940025E-015,50.7999999999991,28.0631896507664));
#604=CARTESIAN_POINT('',(2.2,50.7999999999991,28.0631896507664));
#605=VECTOR('',#691,1.0);
#606=CARTESIAN_POINT('',(-1.77635683940025E-015,30.9170269766051,35.2999999999997));
#607=CARTESIAN_POINT('',(-1.77635683940025E-015,42.9,30.9385545014691));
#608=VECTOR('',#692,1.0);
#609=CARTESIAN_POINT('',(2.2,30.9170269766051,35.2999999999997));
#610=VECTOR('',#693,1.0);
#612=CARTESIAN_POINT('',(-8.88178419700125E-016,0.0,16.999999999997));
#613=CARTESIAN_POINT('',(1.4,0.0,16.999999999997));
#614=VECTOR('',#694,1.0);
#615=AXIS2_PLACEMENT_3D('',#695,#696,#697);
#617=CARTESIAN_POINT('',(-8.88178419700125E-016,50.7999999999991,16.9999999999983));
#618=AXIS2_PLACEMENT_3D('',#698,#699,#700);
#619=CARTESIAN_POINT('',(1.4,50.7999999999991,16.9999999999983));
#620=VECTOR('',#701,1.0);
#622=CARTESIAN_POINT('',(0.0,50.7999999999991,-0.217225000000268));
#623=VECTOR('',#702,1.0);
#625=CARTESIAN_POINT('',(0.0,50.7999999999991,-0.217225000000268));
#626=VECTOR('',#703,1.0);
#628=CARTESIAN_POINT('',(-1.77635683940025E-015,42.9,35.2999999999997));
#629=VECTOR('',#704,1.0);
#631=CARTESIAN_POINT('',(-4.44089209850063E-016,0.0,6.40000000000374));
#632=CARTESIAN_POINT('',(2.2,0.0,6.40000000000374));
#633=VECTOR('',#705,1.0);
#634=CARTESIAN_POINT('',(0.0,0.0,-0.217225000000271));
#635=VECTOR('',#706,1.0);
#637=CARTESIAN_POINT('',(0.0,0.0,-0.217225000000271));
#638=VECTOR('',#707,1.0);
#640=CARTESIAN_POINT('',(-4.44089209850063E-016,4.6118365096448,6.40000000000374));
#641=CARTESIAN_POINT('',(0.0,3.4450412047264,-0.21722500000027));
#642=VECTOR('',#708,1.0);
#643=CARTESIAN_POINT('',(-4.44089209850063E-016,42.9,6.40000000000365));
#644=VECTOR('',#709,1.0);
#646=CARTESIAN_POINT('',(2.2,4.6118365096448,6.40000000000373));
#647=VECTOR('',#710,1.0);
#650=DIRECTION('',(-1.0,3.08148791101958E-033,-5.55111512312578E-017));
#651=CARTESIAN_POINT('',(2.2,64.5477270848667,10.9999999999984));
#652=DIRECTION('',(1.0,-3.08148791101958E-033,5.55111512312578E-017));
#653=DIRECTION('',(5.83874360135337E-048,1.0,5.55111512312578E-017));
#654=DIRECTION('',(-1.0,3.08148791101958E-033,-5.55111512312578E-017));
#655=CARTESIAN_POINT('',(-4.44089209850063E-016,64.5477270848667,10.9999999999984));
#656=DIRECTION('',(1.0,-3.08148791101958E-033,5.55111512312578E-017));
#657=DIRECTION('',(5.83874360135337E-048,1.0,5.55111512312578E-017));
#658=DIRECTION('',(1.0,-3.08148791101958E-033,5.55111512312578E-017));
#659=CARTESIAN_POINT('',(-8.88178419700125E-016,-14.3090880212678,12.4999999999979));
#660=DIRECTION('',(1.0,-3.08148791101958E-033,5.55111512312578E-017));
#661=DIRECTION('',(5.83874360134846E-048,1.0,5.55111512312578E-017));
#662=DIRECTION('',(1.0,-3.08148791101958E-033,5.55111512312578E-017));
#663=CARTESIAN_POINT('',(2.2,-14.3090880212678,12.4999999999979));
#664=DIRECTION('',(1.0,-3.08148791101958E-033,5.55111512312578E-017));
#665=DIRECTION('',(5.83874360134846E-048,1.0,5.55111512312578E-017));
#666=CARTESIAN_POINT('',(2.2,64.5477270848667,10.9999999999984));
#667=DIRECTION('',(1.0,-3.08148791101958E-033,5.55111512312578E-017));
#668=DIRECTION('',(5.83874360135337E-048,1.0,5.55111512312578E-017));
#669=DIRECTION('',(5.55111512312578E-017,5.55111512312578E-017,-1.0));
#670=DIRECTION('',(-1.89859319002877E-017,-0.939692620785908,0.342020143325669));
#671=DIRECTION('',(0.0,1.0,5.55111512312578E-017));
#672=DIRECTION('',(-1.89859319002877E-017,0.939692620785908,0.342020143325669));
#673=DIRECTION('',(5.55111512312578E-017,5.55111512312578E-017,-1.0));
#674=CARTESIAN_POINT('',(2.2,-14.3090880212678,12.4999999999979));
#675=DIRECTION('',(1.0,-3.08148791101958E-033,5.55111512312578E-017));
#676=DIRECTION('',(5.83874360134846E-048,1.0,5.55111512312578E-017));
#677=DIRECTION('',(-5.55111512312578E-017,-5.55111512312578E-017,1.0));
#678=DIRECTION('',(1.09204957521541E-031,1.0,-1.91175047277283E-015));
#679=DIRECTION('',(-5.46678121111772E-017,0.173648177666793,0.984807753012232));
#680=DIRECTION('',(0.0,-1.0,-5.55111512312578E-017));
#681=DIRECTION('',(-4.89970787527665E-017,0.470025375689051,0.882652902452808));
#682=DIRECTION('',(5.55111512312578E-017,1.83186799063265E-015,-1.0));
#683=DIRECTION('',(1.89859319002877E-017,-0.939692620785908,-0.342020143325669));
#684=DIRECTION('',(1.0,-3.08148791101958E-033,5.55111512312578E-017));
#685=DIRECTION('',(-1.0,3.08148791101958E-033,-5.55111512312578E-017));
#686=DIRECTION('',(1.0,-3.08148791101958E-033,5.55111512312578E-017));
#687=DIRECTION('',(-4.89970787527665E-017,0.470025375689051,0.882652902452808));
#688=DIRECTION('',(-1.0,3.08148791101958E-033,-5.55111512312578E-017));
#689=DIRECTION('',(-1.0,3.08148791101958E-033,-5.55111512312578E-017));
#690=DIRECTION('',(0.0,1.0,5.55111512312578E-017));
#691=DIRECTION('',(1.0,-3.08148791101958E-033,5.55111512312578E-017));
#692=DIRECTION('',(-1.89859319002877E-017,-0.939692620785908,0.342020143325669));
#693=DIRECTION('',(1.0,-3.08148791101958E-033,5.55111512312578E-017));
#694=DIRECTION('',(-1.0,3.08148791101958E-033,-5.55111512312578E-017));
#695=CARTESIAN_POINT('',(-8.88178419700125E-016,-14.3090880212678,12.4999999999979));
#696=DIRECTION('',(1.0,-3.08148791101958E-033,5.55111512312578E-017));
#697=DIRECTION('',(5.83874360134846E-048,1.0,5.55111512312578E-017));
#698=CARTESIAN_POINT('',(-4.44089209850063E-016,64.5477270848667,10.9999999999984));
#699=DIRECTION('',(1.0,-3.08148791101958E-033,5.55111512312578E-017));
#700=DIRECTION('',(5.83874360135337E-048,1.0,5.55111512312578E-017));
#701=DIRECTION('',(1.0,-3.08148791101958E-033,5.55111512312578E-017));
#702=DIRECTION('',(-5.55111512312578E-017,-1.83186799063265E-015,1.0));
#703=DIRECTION('',(-5.55111512312578E-017,-5.55111512312578E-017,1.0));
#704=DIRECTION('',(0.0,-1.0,-5.55111512312578E-017));
#705=DIRECTION('',(-1.0,3.08148791101958E-033,-5.55111512312578E-017));
#706=DIRECTION('',(5.55111512312578E-017,5.55111512312578E-017,-1.0));
#707=DIRECTION('',(5.55111512312578E-017,5.55111512312578E-017,-1.0));
#708=DIRECTION('',(5.46678121111772E-017,-0.173648177666793,-0.984807753012232));
#709=DIRECTION('',(-1.09204957521541E-031,-1.0,1.91175047277283E-015));
#710=DIRECTION('',(-1.0,3.08148791101958E-033,-5.55111512312578E-017));
ENDSEC;
END-ISO-10303-21;

