ISO-10303-21;
HEADER;
FILE_DESCRIPTION(('STEP AP214'),'1');
FILE_NAME('cctmp_1CCD4E76-82DB-4A37-9570-AA5E7E58D12C_2023_07_24_09_03_15_0751..stp','2023-07-24T07:03:15',('SIEMENS A&D'),('CADClick - www.CADClick.com'),'Spatial InterOp 3D postprocessed',' ','unknown authorization');
FILE_SCHEMA(('AUTOMOTIVE_DESIGN'));
ENDSEC;
DATA;
#1=MECHANICAL_DESIGN_GEOMETRIC_PRESENTATION_REPRESENTATION(' ',(#10,#11,#12,#13,#14,#15,#16,#17,#18,#19,#20,#21,#22,#23,#24,#25,#26,#27,#28,#29,#30),#6);
#2=PRODUCT_DEFINITION_CONTEXT('',#31,'design');
#3=APPLICATION_PROTOCOL_DEFINITION('INTERNATIONAL STANDARD','automotive_design',1994,#31);
#4=PRODUCT_CATEGORY_RELATIONSHIP('NONE','NONE',#32,#33);
#5=SHAPE_DEFINITION_REPRESENTATION(#34,#35);
#6= (GEOMETRIC_REPRESENTATION_CONTEXT(3)GLOBAL_UNCERTAINTY_ASSIGNED_CONTEXT((#38))GLOBAL_UNIT_ASSIGNED_CONTEXT((#40,#41,#42))REPRESENTATION_CONTEXT('NONE','WORKSPACE'));
#10=STYLED_ITEM('',(#44),#45);
#11=STYLED_ITEM('',(#46),#47);
#12=STYLED_ITEM('',(#48),#49);
#13=STYLED_ITEM('',(#50),#51);
#14=STYLED_ITEM('',(#52),#53);
#15=STYLED_ITEM('',(#54),#55);
#16=STYLED_ITEM('',(#56),#57);
#17=STYLED_ITEM('',(#58),#59);
#18=STYLED_ITEM('',(#60),#61);
#19=STYLED_ITEM('',(#62),#63);
#20=STYLED_ITEM('',(#64),#65);
#21=STYLED_ITEM('',(#66),#67);
#22=STYLED_ITEM('',(#68),#69);
#23=STYLED_ITEM('',(#70),#71);
#24=STYLED_ITEM('',(#72),#73);
#25=STYLED_ITEM('',(#74),#75);
#26=STYLED_ITEM('',(#76),#77);
#27=STYLED_ITEM('',(#78),#79);
#28=STYLED_ITEM('',(#80),#81);
#29=STYLED_ITEM('',(#82),#83);
#30=STYLED_ITEM('',(#84),#85);
#31=APPLICATION_CONTEXT(' ');
#32=PRODUCT_CATEGORY('part','NONE');
#33=PRODUCT_RELATED_PRODUCT_CATEGORY('detail',' ',(#86));
#34=PRODUCT_DEFINITION_SHAPE('NONE','NONE',#87);
#35=ADVANCED_BREP_SHAPE_REPRESENTATION('2023_07_24_09_03_15_0750',(#85,#88),#6);
#38=UNCERTAINTY_MEASURE_WITH_UNIT(LENGTH_MEASURE(1.0E-006),#40,'','');
#40= (CONVERSION_BASED_UNIT('MILLIMETRE',#91)LENGTH_UNIT()NAMED_UNIT(#94));
#41= (NAMED_UNIT(#96)PLANE_ANGLE_UNIT()SI_UNIT($,.RADIAN.));
#42= (NAMED_UNIT(#96)SOLID_ANGLE_UNIT()SI_UNIT($,.STERADIAN.));
#44=PRESENTATION_STYLE_ASSIGNMENT((#102));
#45=ADVANCED_FACE('',(#103),#104,.T.);
#46=PRESENTATION_STYLE_ASSIGNMENT((#105));
#47=ADVANCED_FACE('',(#106),#107,.T.);
#48=PRESENTATION_STYLE_ASSIGNMENT((#108));
#49=ADVANCED_FACE('',(#109),#110,.T.);
#50=PRESENTATION_STYLE_ASSIGNMENT((#111));
#51=ADVANCED_FACE('',(#112),#113,.T.);
#52=PRESENTATION_STYLE_ASSIGNMENT((#114));
#53=ADVANCED_FACE('',(#115),#116,.T.);
#54=PRESENTATION_STYLE_ASSIGNMENT((#117));
#55=ADVANCED_FACE('',(#118),#119,.T.);
#56=PRESENTATION_STYLE_ASSIGNMENT((#120));
#57=ADVANCED_FACE('',(#121),#122,.T.);
#58=PRESENTATION_STYLE_ASSIGNMENT((#123));
#59=ADVANCED_FACE('',(#124),#125,.T.);
#60=PRESENTATION_STYLE_ASSIGNMENT((#126));
#61=ADVANCED_FACE('',(#127),#128,.T.);
#62=PRESENTATION_STYLE_ASSIGNMENT((#129));
#63=ADVANCED_FACE('',(#130),#131,.T.);
#64=PRESENTATION_STYLE_ASSIGNMENT((#132));
#65=ADVANCED_FACE('',(#133),#134,.T.);
#66=PRESENTATION_STYLE_ASSIGNMENT((#135));
#67=ADVANCED_FACE('',(#136),#137,.T.);
#68=PRESENTATION_STYLE_ASSIGNMENT((#138));
#69=ADVANCED_FACE('',(#139),#140,.T.);
#70=PRESENTATION_STYLE_ASSIGNMENT((#141));
#71=ADVANCED_FACE('',(#142),#143,.T.);
#72=PRESENTATION_STYLE_ASSIGNMENT((#144));
#73=ADVANCED_FACE('',(#145),#146,.T.);
#74=PRESENTATION_STYLE_ASSIGNMENT((#147));
#75=ADVANCED_FACE('',(#148),#149,.T.);
#76=PRESENTATION_STYLE_ASSIGNMENT((#150));
#77=ADVANCED_FACE('',(#151),#152,.T.);
#78=PRESENTATION_STYLE_ASSIGNMENT((#153));
#79=ADVANCED_FACE('',(#154),#155,.T.);
#80=PRESENTATION_STYLE_ASSIGNMENT((#156));
#81=ADVANCED_FACE('',(#157),#158,.T.);
#82=PRESENTATION_STYLE_ASSIGNMENT((#159));
#83=ADVANCED_FACE('',(#160),#161,.F.);
#84=PRESENTATION_STYLE_ASSIGNMENT((#162));
#85=MANIFOLD_SOLID_BREP('2023_07_24_09_03_15_0750',#163);
#86=PRODUCT('2023_07_24_09_03_15_0750','','PART--DESC',(#164));
#87=PRODUCT_DEFINITION('','NONE',#165,#2);
#88=AXIS2_PLACEMENT_3D('',#166,#167,#168);
#91=LENGTH_MEASURE_WITH_UNIT(LENGTH_MEASURE(1.0),#169);
#94=DIMENSIONAL_EXPONENTS(1.0,0.0,0.0,0.0,0.0,0.0,0.0);
#96=DIMENSIONAL_EXPONENTS(0.0,0.0,0.0,0.0,0.0,0.0,0.0);
#102=SURFACE_STYLE_USAGE(.BOTH.,#170);
#103=FACE_OUTER_BOUND('',#171,.T.);
#104=CYLINDRICAL_SURFACE('',#172,0.5);
#105=SURFACE_STYLE_USAGE(.BOTH.,#170);
#106=FACE_OUTER_BOUND('',#174,.T.);
#107=CYLINDRICAL_SURFACE('',#175,0.5);
#108=SURFACE_STYLE_USAGE(.BOTH.,#170);
#109=FACE_OUTER_BOUND('',#177,.T.);
#110=PLANE('',#178);
#111=SURFACE_STYLE_USAGE(.BOTH.,#170);
#112=FACE_OUTER_BOUND('',#180,.T.);
#113=PLANE('',#181);
#114=SURFACE_STYLE_USAGE(.BOTH.,#170);
#115=FACE_OUTER_BOUND('',#183,.T.);
#116=PLANE('',#184);
#117=SURFACE_STYLE_USAGE(.BOTH.,#170);
#118=FACE_OUTER_BOUND('',#186,.T.);
#119=PLANE('',#187);
#120=SURFACE_STYLE_USAGE(.BOTH.,#170);
#121=FACE_OUTER_BOUND('',#189,.T.);
#122=PLANE('',#190);
#123=SURFACE_STYLE_USAGE(.BOTH.,#170);
#124=FACE_OUTER_BOUND('',#192,.T.);
#125=PLANE('',#193);
#126=SURFACE_STYLE_USAGE(.BOTH.,#170);
#127=FACE_OUTER_BOUND('',#195,.T.);
#128=PLANE('',#196);
#129=SURFACE_STYLE_USAGE(.BOTH.,#170);
#130=FACE_OUTER_BOUND('',#198,.T.);
#131=PLANE('',#199);
#132=SURFACE_STYLE_USAGE(.BOTH.,#170);
#133=FACE_OUTER_BOUND('',#201,.T.);
#134=PLANE('',#202);
#135=SURFACE_STYLE_USAGE(.BOTH.,#170);
#136=FACE_OUTER_BOUND('',#204,.T.);
#137=PLANE('',#205);
#138=SURFACE_STYLE_USAGE(.BOTH.,#170);
#139=FACE_OUTER_BOUND('',#207,.T.);
#140=PLANE('',#208);
#141=SURFACE_STYLE_USAGE(.BOTH.,#170);
#142=FACE_OUTER_BOUND('',#210,.T.);
#143=CYLINDRICAL_SURFACE('',#211,0.5);
#144=SURFACE_STYLE_USAGE(.BOTH.,#170);
#145=FACE_OUTER_BOUND('',#213,.T.);
#146=PLANE('',#214);
#147=SURFACE_STYLE_USAGE(.BOTH.,#170);
#148=FACE_OUTER_BOUND('',#216,.T.);
#149=PLANE('',#217);
#150=SURFACE_STYLE_USAGE(.BOTH.,#170);
#151=FACE_OUTER_BOUND('',#219,.T.);
#152=PLANE('',#220);
#153=SURFACE_STYLE_USAGE(.BOTH.,#170);
#154=FACE_OUTER_BOUND('',#222,.T.);
#155=CYLINDRICAL_SURFACE('',#223,0.5);
#156=SURFACE_STYLE_USAGE(.BOTH.,#170);
#157=FACE_OUTER_BOUND('',#225,.T.);
#158=PLANE('',#226);
#159=SURFACE_STYLE_USAGE(.BOTH.,#170);
#160=FACE_OUTER_BOUND('',#228,.T.);
#161=PLANE('',#229);
#162=SURFACE_STYLE_USAGE(.BOTH.,#170);
#163=CLOSED_SHELL('',(#45,#47,#49,#51,#53,#55,#57,#59,#61,#63,#65,#67,#69,#71,#73,#75,#77,#79,#81,#83));
#164=PRODUCT_CONTEXT('',#31,'mechanical');
#165=PRODUCT_DEFINITION_FORMATION_WITH_SPECIFIED_SOURCE(' ','NONE',#86,.NOT_KNOWN.);
#166=CARTESIAN_POINT('',(0.0,0.0,0.0));
#167=DIRECTION('',(0.0,0.0,1.0));
#168=DIRECTION('',(1.0,0.0,0.0));
#169= (NAMED_UNIT(#94)LENGTH_UNIT()SI_UNIT(.MILLI.,.METRE.));
#170=SURFACE_SIDE_STYLE('',(#232));
#171=EDGE_LOOP('',(#233,#234,#235,#236));
#172=AXIS2_PLACEMENT_3D('',#237,#238,#239);
#174=EDGE_LOOP('',(#241,#242,#243,#244));
#175=AXIS2_PLACEMENT_3D('',#245,#246,#247);
#177=EDGE_LOOP('',(#249,#250,#251,#252));
#178=AXIS2_PLACEMENT_3D('',#253,#254,#255);
#180=EDGE_LOOP('',(#257,#258,#259,#260));
#181=AXIS2_PLACEMENT_3D('',#261,#262,#263);
#183=EDGE_LOOP('',(#265,#266,#267,#268));
#184=AXIS2_PLACEMENT_3D('',#269,#270,#271);
#186=EDGE_LOOP('',(#273,#274,#275,#276));
#187=AXIS2_PLACEMENT_3D('',#277,#278,#279);
#189=EDGE_LOOP('',(#281,#282,#283,#284));
#190=AXIS2_PLACEMENT_3D('',#285,#286,#287);
#192=EDGE_LOOP('',(#289,#290,#291,#292));
#193=AXIS2_PLACEMENT_3D('',#293,#294,#295);
#195=EDGE_LOOP('',(#297,#298,#299,#300));
#196=AXIS2_PLACEMENT_3D('',#301,#302,#303);
#198=EDGE_LOOP('',(#305,#306,#307,#308));
#199=AXIS2_PLACEMENT_3D('',#309,#310,#311);
#201=EDGE_LOOP('',(#313,#314,#315,#316));
#202=AXIS2_PLACEMENT_3D('',#317,#318,#319);
#204=EDGE_LOOP('',(#321,#322,#323,#324));
#205=AXIS2_PLACEMENT_3D('',#325,#326,#327);
#207=EDGE_LOOP('',(#329,#330,#331,#332));
#208=AXIS2_PLACEMENT_3D('',#333,#334,#335);
#210=EDGE_LOOP('',(#337,#338,#339,#340));
#211=AXIS2_PLACEMENT_3D('',#341,#342,#343);
#213=EDGE_LOOP('',(#345,#346,#347,#348));
#214=AXIS2_PLACEMENT_3D('',#349,#350,#351);
#216=EDGE_LOOP('',(#353,#354,#355,#356));
#217=AXIS2_PLACEMENT_3D('',#357,#358,#359);
#219=EDGE_LOOP('',(#361,#362,#363,#364));
#220=AXIS2_PLACEMENT_3D('',#365,#366,#367);
#222=EDGE_LOOP('',(#369,#370,#371,#372));
#223=AXIS2_PLACEMENT_3D('',#373,#374,#375);
#225=EDGE_LOOP('',(#377,#378,#379,#380,#381,#382,#383,#384,#385,#386,#387,#388,#389,#390,#391,#392,#393,#394));
#226=AXIS2_PLACEMENT_3D('',#395,#396,#397);
#228=EDGE_LOOP('',(#399,#400,#401,#402,#403,#404,#405,#406,#407,#408,#409,#410,#411,#412,#413,#414,#415,#416));
#229=AXIS2_PLACEMENT_3D('',#417,#418,#419);
#232=SURFACE_STYLE_FILL_AREA(#421);
#233=ORIENTED_EDGE('',*,*,#422,.F.);
#234=ORIENTED_EDGE('',*,*,#423,.T.);
#235=ORIENTED_EDGE('',*,*,#424,.T.);
#236=ORIENTED_EDGE('',*,*,#425,.F.);
#237=CARTESIAN_POINT('',(15.1,2.42500000000101,0.5));
#238=DIRECTION('',(1.0,0.0,0.0));
#239=DIRECTION('',(0.0,-1.0,0.0));
#241=ORIENTED_EDGE('',*,*,#427,.F.);
#242=ORIENTED_EDGE('',*,*,#428,.F.);
#243=ORIENTED_EDGE('',*,*,#429,.F.);
#244=ORIENTED_EDGE('',*,*,#430,.T.);
#245=CARTESIAN_POINT('',(15.1,8.07500000000098,0.5));
#246=DIRECTION('',(1.0,0.0,0.0));
#247=DIRECTION('',(0.0,-1.0,0.0));
#249=ORIENTED_EDGE('',*,*,#432,.T.);
#250=ORIENTED_EDGE('',*,*,#433,.F.);
#251=ORIENTED_EDGE('',*,*,#434,.F.);
#252=ORIENTED_EDGE('',*,*,#435,.F.);
#253=CARTESIAN_POINT('',(15.1,3.32385520730298,0.444708572937998));
#254=DIRECTION('',(0.0,0.965925826288677,-0.258819045103983));
#255=DIRECTION('',(0.0,0.258819045103983,0.965925826288677));
#257=ORIENTED_EDGE('',*,*,#437,.T.);
#258=ORIENTED_EDGE('',*,*,#438,.T.);
#259=ORIENTED_EDGE('',*,*,#439,.F.);
#260=ORIENTED_EDGE('',*,*,#440,.T.);
#261=CARTESIAN_POINT('',(15.1,10.300000000001,4.2));
#262=DIRECTION('',(0.0,0.0,1.0));
#263=DIRECTION('',(0.0,-1.0,0.0));
#265=ORIENTED_EDGE('',*,*,#442,.T.);
#266=ORIENTED_EDGE('',*,*,#443,.F.);
#267=ORIENTED_EDGE('',*,*,#444,.F.);
#268=ORIENTED_EDGE('',*,*,#438,.F.);
#269=CARTESIAN_POINT('',(15.1,10.5,3.3));
#270=DIRECTION('',(0.0,1.0,0.0));
#271=DIRECTION('',(-1.0,0.0,0.0));
#273=ORIENTED_EDGE('',*,*,#446,.F.);
#274=ORIENTED_EDGE('',*,*,#447,.F.);
#275=ORIENTED_EDGE('',*,*,#448,.T.);
#276=ORIENTED_EDGE('',*,*,#449,.T.);
#277=CARTESIAN_POINT('',(15.1,3.24318516526,2.848236190981));
#278=DIRECTION('',(0.0,-0.965925826288382,0.258819045105081));
#279=DIRECTION('',(1.0,0.0,0.0));
#281=ORIENTED_EDGE('',*,*,#451,.F.);
#282=ORIENTED_EDGE('',*,*,#449,.F.);
#283=ORIENTED_EDGE('',*,*,#452,.T.);
#284=ORIENTED_EDGE('',*,*,#424,.F.);
#285=CARTESIAN_POINT('',(15.1,2.517753674067,1.0));
#286=DIRECTION('',(0.0,0.0,1.0));
#287=DIRECTION('',(0.0,-1.0,0.0));
#289=ORIENTED_EDGE('',*,*,#454,.T.);
#290=ORIENTED_EDGE('',*,*,#455,.T.);
#291=ORIENTED_EDGE('',*,*,#456,.F.);
#292=ORIENTED_EDGE('',*,*,#443,.T.);
#293=CARTESIAN_POINT('',(15.1,7.45000000000201,3.10000000000001));
#294=DIRECTION('',(0.0,0.0,-1.0));
#295=DIRECTION('',(1.0,0.0,0.0));
#297=ORIENTED_EDGE('',*,*,#458,.T.);
#298=ORIENTED_EDGE('',*,*,#440,.F.);
#299=ORIENTED_EDGE('',*,*,#459,.F.);
#300=ORIENTED_EDGE('',*,*,#460,.F.);
#301=CARTESIAN_POINT('',(15.1,0.0,4.0));
#302=DIRECTION('',(0.0,-1.0,0.0));
#303=DIRECTION('',(0.0,0.0,1.0));
#305=ORIENTED_EDGE('',*,*,#462,.T.);
#306=ORIENTED_EDGE('',*,*,#460,.T.);
#307=ORIENTED_EDGE('',*,*,#463,.F.);
#308=ORIENTED_EDGE('',*,*,#447,.T.);
#309=CARTESIAN_POINT('',(15.1,0.200000000000983,3.10000000000001));
#310=DIRECTION('',(0.0,0.0,-1.0));
#311=DIRECTION('',(1.0,0.0,0.0));
#313=ORIENTED_EDGE('',*,*,#465,.T.);
#314=ORIENTED_EDGE('',*,*,#466,.T.);
#315=ORIENTED_EDGE('',*,*,#467,.F.);
#316=ORIENTED_EDGE('',*,*,#455,.F.);
#317=CARTESIAN_POINT('',(15.1,7.69246857804899,1.22235428647001));
#318=DIRECTION('',(0.0,0.965925826288454,0.258819045104813));
#319=DIRECTION('',(-1.0,0.0,0.0));
#321=ORIENTED_EDGE('',*,*,#469,.T.);
#322=ORIENTED_EDGE('',*,*,#470,.T.);
#323=ORIENTED_EDGE('',*,*,#471,.F.);
#324=ORIENTED_EDGE('',*,*,#433,.T.);
#325=CARTESIAN_POINT('',(15.1,2.42500000000101,0.0));
#326=DIRECTION('',(0.0,0.0,-1.0));
#327=DIRECTION('',(1.0,0.0,0.0));
#329=ORIENTED_EDGE('',*,*,#473,.F.);
#330=ORIENTED_EDGE('',*,*,#429,.T.);
#331=ORIENTED_EDGE('',*,*,#474,.T.);
#332=ORIENTED_EDGE('',*,*,#466,.F.);
#333=CARTESIAN_POINT('',(15.1,8.07500000000098,1.0));
#334=DIRECTION('',(0.0,0.0,1.0));
#335=DIRECTION('',(0.0,-1.0,0.0));
#337=ORIENTED_EDGE('',*,*,#427,.T.);
#338=ORIENTED_EDGE('',*,*,#476,.T.);
#339=ORIENTED_EDGE('',*,*,#477,.T.);
#340=ORIENTED_EDGE('',*,*,#478,.F.);
#341=CARTESIAN_POINT('',(15.1,8.07500000000098,0.5));
#342=DIRECTION('',(1.0,0.0,0.0));
#343=DIRECTION('',(0.0,-1.0,0.0));
#345=ORIENTED_EDGE('',*,*,#480,.T.);
#346=ORIENTED_EDGE('',*,*,#435,.T.);
#347=ORIENTED_EDGE('',*,*,#481,.F.);
#348=ORIENTED_EDGE('',*,*,#482,.T.);
#349=CARTESIAN_POINT('',(15.1,4.18880379845498,3.10000000000001));
#350=DIRECTION('',(0.0,0.0,-1.0));
#351=DIRECTION('',(1.0,0.0,0.0));
#353=ORIENTED_EDGE('',*,*,#484,.T.);
#354=ORIENTED_EDGE('',*,*,#485,.T.);
#355=ORIENTED_EDGE('',*,*,#486,.F.);
#356=ORIENTED_EDGE('',*,*,#477,.F.);
#357=CARTESIAN_POINT('',(15.1,7.75570028847301,0.0));
#358=DIRECTION('',(0.0,0.0,-1.0));
#359=DIRECTION('',(1.0,0.0,0.0));
#361=ORIENTED_EDGE('',*,*,#488,.T.);
#362=ORIENTED_EDGE('',*,*,#482,.F.);
#363=ORIENTED_EDGE('',*,*,#489,.F.);
#364=ORIENTED_EDGE('',*,*,#485,.F.);
#365=CARTESIAN_POINT('',(15.1,6.504381366807,2.951763809021));
#366=DIRECTION('',(0.0,-0.965925826288803,-0.258819045103513));
#367=DIRECTION('',(1.0,0.0,0.0));
#369=ORIENTED_EDGE('',*,*,#422,.T.);
#370=ORIENTED_EDGE('',*,*,#491,.F.);
#371=ORIENTED_EDGE('',*,*,#470,.F.);
#372=ORIENTED_EDGE('',*,*,#492,.T.);
#373=CARTESIAN_POINT('',(15.1,2.42500000000101,0.5));
#374=DIRECTION('',(1.0,0.0,0.0));
#375=DIRECTION('',(0.0,-1.0,0.0));
#377=ORIENTED_EDGE('',*,*,#481,.T.);
#378=ORIENTED_EDGE('',*,*,#434,.T.);
#379=ORIENTED_EDGE('',*,*,#471,.T.);
#380=ORIENTED_EDGE('',*,*,#491,.T.);
#381=ORIENTED_EDGE('',*,*,#425,.T.);
#382=ORIENTED_EDGE('',*,*,#452,.F.);
#383=ORIENTED_EDGE('',*,*,#448,.F.);
#384=ORIENTED_EDGE('',*,*,#463,.T.);
#385=ORIENTED_EDGE('',*,*,#459,.T.);
#386=ORIENTED_EDGE('',*,*,#439,.T.);
#387=ORIENTED_EDGE('',*,*,#444,.T.);
#388=ORIENTED_EDGE('',*,*,#456,.T.);
#389=ORIENTED_EDGE('',*,*,#467,.T.);
#390=ORIENTED_EDGE('',*,*,#474,.F.);
#391=ORIENTED_EDGE('',*,*,#428,.T.);
#392=ORIENTED_EDGE('',*,*,#478,.T.);
#393=ORIENTED_EDGE('',*,*,#486,.T.);
#394=ORIENTED_EDGE('',*,*,#489,.T.);
#395=CARTESIAN_POINT('',(0.0,-174.654306489985,123.36934601221));
#396=DIRECTION('',(-1.0,0.0,0.0));
#397=DIRECTION('',(0.0,-1.0,0.0));
#399=ORIENTED_EDGE('',*,*,#488,.F.);
#400=ORIENTED_EDGE('',*,*,#484,.F.);
#401=ORIENTED_EDGE('',*,*,#476,.F.);
#402=ORIENTED_EDGE('',*,*,#430,.F.);
#403=ORIENTED_EDGE('',*,*,#473,.T.);
#404=ORIENTED_EDGE('',*,*,#465,.F.);
#405=ORIENTED_EDGE('',*,*,#454,.F.);
#406=ORIENTED_EDGE('',*,*,#442,.F.);
#407=ORIENTED_EDGE('',*,*,#437,.F.);
#408=ORIENTED_EDGE('',*,*,#458,.F.);
#409=ORIENTED_EDGE('',*,*,#462,.F.);
#410=ORIENTED_EDGE('',*,*,#446,.T.);
#411=ORIENTED_EDGE('',*,*,#451,.T.);
#412=ORIENTED_EDGE('',*,*,#423,.F.);
#413=ORIENTED_EDGE('',*,*,#492,.F.);
#414=ORIENTED_EDGE('',*,*,#469,.F.);
#415=ORIENTED_EDGE('',*,*,#432,.F.);
#416=ORIENTED_EDGE('',*,*,#480,.F.);
#417=CARTESIAN_POINT('',(15.1,-174.654306489985,123.36934601221));
#418=DIRECTION('',(-1.0,0.0,0.0));
#419=DIRECTION('',(0.0,-1.0,0.0));
#421=FILL_AREA_STYLE('',(#496));
#422=EDGE_CURVE('',#497,#498,#499,.T.);
#423=EDGE_CURVE('',#497,#500,#501,.T.);
#424=EDGE_CURVE('',#500,#502,#503,.T.);
#425=EDGE_CURVE('',#498,#502,#504,.T.);
#427=EDGE_CURVE('',#506,#507,#508,.T.);
#428=EDGE_CURVE('',#509,#506,#510,.T.);
#429=EDGE_CURVE('',#511,#509,#512,.T.);
#430=EDGE_CURVE('',#511,#507,#513,.T.);
#432=EDGE_CURVE('',#515,#516,#517,.T.);
#433=EDGE_CURVE('',#518,#516,#519,.T.);
#434=EDGE_CURVE('',#520,#518,#521,.T.);
#435=EDGE_CURVE('',#515,#520,#522,.T.);
#437=EDGE_CURVE('',#524,#525,#526,.T.);
#438=EDGE_CURVE('',#525,#527,#528,.T.);
#439=EDGE_CURVE('',#529,#527,#530,.T.);
#440=EDGE_CURVE('',#529,#524,#531,.T.);
#442=EDGE_CURVE('',#525,#533,#534,.T.);
#443=EDGE_CURVE('',#535,#533,#536,.T.);
#444=EDGE_CURVE('',#527,#535,#537,.T.);
#446=EDGE_CURVE('',#539,#540,#541,.T.);
#447=EDGE_CURVE('',#542,#539,#543,.T.);
#448=EDGE_CURVE('',#542,#544,#545,.T.);
#449=EDGE_CURVE('',#544,#540,#546,.T.);
#451=EDGE_CURVE('',#540,#500,#548,.T.);
#452=EDGE_CURVE('',#544,#502,#549,.T.);
#454=EDGE_CURVE('',#533,#551,#552,.T.);
#455=EDGE_CURVE('',#551,#553,#554,.T.);
#456=EDGE_CURVE('',#535,#553,#555,.T.);
#458=EDGE_CURVE('',#557,#524,#558,.T.);
#459=EDGE_CURVE('',#559,#529,#560,.T.);
#460=EDGE_CURVE('',#557,#559,#561,.T.);
#462=EDGE_CURVE('',#539,#557,#563,.T.);
#463=EDGE_CURVE('',#542,#559,#564,.T.);
#465=EDGE_CURVE('',#551,#566,#567,.T.);
#466=EDGE_CURVE('',#566,#568,#569,.T.);
#467=EDGE_CURVE('',#553,#568,#570,.T.);
#469=EDGE_CURVE('',#516,#572,#573,.T.);
#470=EDGE_CURVE('',#572,#574,#575,.T.);
#471=EDGE_CURVE('',#518,#574,#576,.T.);
#473=EDGE_CURVE('',#511,#566,#578,.T.);
#474=EDGE_CURVE('',#509,#568,#579,.T.);
#476=EDGE_CURVE('',#507,#581,#582,.T.);
#477=EDGE_CURVE('',#581,#583,#584,.T.);
#478=EDGE_CURVE('',#506,#583,#585,.T.);
#480=EDGE_CURVE('',#587,#515,#588,.T.);
#481=EDGE_CURVE('',#589,#520,#590,.T.);
#482=EDGE_CURVE('',#589,#587,#591,.T.);
#484=EDGE_CURVE('',#581,#593,#594,.T.);
#485=EDGE_CURVE('',#593,#595,#596,.T.);
#486=EDGE_CURVE('',#583,#595,#597,.T.);
#488=EDGE_CURVE('',#593,#587,#599,.T.);
#489=EDGE_CURVE('',#595,#589,#600,.T.);
#491=EDGE_CURVE('',#574,#498,#602,.T.);
#492=EDGE_CURVE('',#572,#497,#603,.T.);
#496=FILL_AREA_STYLE_COLOUR('',#607);
#497=VERTEX_POINT('',#608);
#498=VERTEX_POINT('',#609);
#499=LINE('',#610,#611);
#500=VERTEX_POINT('',#612);
#501=CIRCLE('',#613,0.500000000000199);
#502=VERTEX_POINT('',#614);
#503=LINE('',#615,#616);
#504=CIRCLE('',#617,0.500000000000199);
#506=VERTEX_POINT('',#619);
#507=VERTEX_POINT('',#620);
#508=LINE('',#621,#622);
#509=VERTEX_POINT('',#623);
#510=CIRCLE('',#624,0.5);
#511=VERTEX_POINT('',#625);
#512=LINE('',#626,#627);
#513=CIRCLE('',#628,0.5);
#515=VERTEX_POINT('',#630);
#516=VERTEX_POINT('',#631);
#517=LINE('',#632,#633);
#518=VERTEX_POINT('',#634);
#519=LINE('',#635,#636);
#520=VERTEX_POINT('',#637);
#521=LINE('',#638,#639);
#522=LINE('',#640,#641);
#524=VERTEX_POINT('',#643);
#525=VERTEX_POINT('',#644);
#526=LINE('',#645,#646);
#527=VERTEX_POINT('',#647);
#528=LINE('',#648,#649);
#529=VERTEX_POINT('',#650);
#530=LINE('',#651,#652);
#531=LINE('',#653,#654);
#533=VERTEX_POINT('',#656);
#534=LINE('',#657,#658);
#535=VERTEX_POINT('',#659);
#536=LINE('',#660,#661);
#537=LINE('',#662,#663);
#539=VERTEX_POINT('',#665);
#540=VERTEX_POINT('',#666);
#541=LINE('',#667,#668);
#542=VERTEX_POINT('',#669);
#543=LINE('',#670,#671);
#544=VERTEX_POINT('',#672);
#545=LINE('',#673,#674);
#546=LINE('',#675,#676);
#548=LINE('',#678,#679);
#549=LINE('',#680,#681);
#551=VERTEX_POINT('',#683);
#552=LINE('',#684,#685);
#553=VERTEX_POINT('',#686);
#554=LINE('',#687,#688);
#555=LINE('',#689,#690);
#557=VERTEX_POINT('',#692);
#558=LINE('',#693,#694);
#559=VERTEX_POINT('',#695);
#560=LINE('',#696,#697);
#561=LINE('',#698,#699);
#563=LINE('',#701,#702);
#564=LINE('',#703,#704);
#566=VERTEX_POINT('',#706);
#567=LINE('',#707,#708);
#568=VERTEX_POINT('',#709);
#569=LINE('',#710,#711);
#570=LINE('',#712,#713);
#572=VERTEX_POINT('',#715);
#573=LINE('',#716,#717);
#574=VERTEX_POINT('',#718);
#575=LINE('',#719,#720);
#576=LINE('',#721,#722);
#578=LINE('',#724,#725);
#579=LINE('',#726,#727);
#581=VERTEX_POINT('',#729);
#582=CIRCLE('',#730,0.5);
#583=VERTEX_POINT('',#731);
#584=LINE('',#732,#733);
#585=CIRCLE('',#734,0.5);
#587=VERTEX_POINT('',#736);
#588=LINE('',#737,#738);
#589=VERTEX_POINT('',#739);
#590=LINE('',#740,#741);
#591=LINE('',#742,#743);
#593=VERTEX_POINT('',#745);
#594=LINE('',#746,#747);
#595=VERTEX_POINT('',#748);
#596=LINE('',#749,#750);
#597=LINE('',#751,#752);
#599=LINE('',#754,#755);
#600=LINE('',#756,#757);
#602=CIRCLE('',#759,0.500000000000199);
#603=CIRCLE('',#760,0.500000000000199);
#607=COLOUR_RGB('',0.980392217636108,1.0,1.0);
#608=CARTESIAN_POINT('',(15.1,1.92500000000081,0.5));
#609=CARTESIAN_POINT('',(0.0,1.92500000000081,0.5));
#610=CARTESIAN_POINT('',(15.1,1.92500000000101,0.5));
#611=VECTOR('',#764,1.0);
#612=CARTESIAN_POINT('',(15.1,2.42500000000101,1.0));
#613=AXIS2_PLACEMENT_3D('',#765,#766,#767);
#614=CARTESIAN_POINT('',(0.0,2.42500000000101,1.0));
#615=CARTESIAN_POINT('',(15.1,2.42500000000101,1.0));
#616=VECTOR('',#768,1.0);
#617=AXIS2_PLACEMENT_3D('',#769,#770,#771);
#619=CARTESIAN_POINT('',(0.0,8.57500000000098,0.5));
#620=CARTESIAN_POINT('',(15.1,8.57500000000098,0.5));
#621=CARTESIAN_POINT('',(15.1,8.57500000000098,0.5));
#622=VECTOR('',#772,1.0);
#623=CARTESIAN_POINT('',(0.0,8.07500000000098,1.0));
#624=AXIS2_PLACEMENT_3D('',#773,#774,#775);
#625=CARTESIAN_POINT('',(15.1,8.07500000000098,1.0));
#626=CARTESIAN_POINT('',(15.1,8.07500000000098,1.0));
#627=VECTOR('',#776,1.0);
#628=AXIS2_PLACEMENT_3D('',#777,#778,#779);
#630=CARTESIAN_POINT('',(15.1,4.035338400858,3.10000000000001));
#631=CARTESIAN_POINT('',(15.1,3.204695904316,0.0));
#632=CARTESIAN_POINT('',(15.1,36.261412539244,123.36934601221));
#633=VECTOR('',#780,1.0);
#634=CARTESIAN_POINT('',(0.0,3.204695904316,0.0));
#635=CARTESIAN_POINT('',(15.1,3.204695904316,0.0));
#636=VECTOR('',#781,1.0);
#637=CARTESIAN_POINT('',(0.0,4.035338400858,3.10000000000001));
#638=CARTESIAN_POINT('',(0.0,36.261412539244,123.36934601221));
#639=VECTOR('',#782,1.0);
#640=CARTESIAN_POINT('',(15.1,4.035338400858,3.10000000000001));
#641=VECTOR('',#783,1.0);
#643=CARTESIAN_POINT('',(15.1,0.0,4.2));
#644=CARTESIAN_POINT('',(15.1,10.5,4.2));
#645=CARTESIAN_POINT('',(15.1,-174.654306489985,4.2));
#646=VECTOR('',#784,1.0);
#647=CARTESIAN_POINT('',(0.0,10.5,4.2));
#648=CARTESIAN_POINT('',(15.1,10.5,4.2));
#649=VECTOR('',#785,1.0);
#650=CARTESIAN_POINT('',(0.0,0.0,4.2));
#651=CARTESIAN_POINT('',(0.0,-174.654306489985,4.2));
#652=VECTOR('',#786,1.0);
#653=CARTESIAN_POINT('',(15.1,0.0,4.2));
#654=VECTOR('',#787,1.0);
#656=CARTESIAN_POINT('',(15.1,10.5,3.10000000000001));
#657=CARTESIAN_POINT('',(15.1,10.5,123.36934601221));
#658=VECTOR('',#788,1.0);
#659=CARTESIAN_POINT('',(0.0,10.5,3.10000000000001));
#660=CARTESIAN_POINT('',(15.1,10.5,3.10000000000001));
#661=VECTOR('',#789,1.0);
#662=CARTESIAN_POINT('',(0.0,10.5,123.36934601221));
#663=VECTOR('',#790,1.0);
#665=CARTESIAN_POINT('',(15.1,3.31064507457,3.10000000000001));
#666=CARTESIAN_POINT('',(15.1,2.747951770459,1.0));
#667=CARTESIAN_POINT('',(15.1,35.536719213103,123.36934601221));
#668=VECTOR('',#791,1.0);
#669=CARTESIAN_POINT('',(0.0,3.31064507457,3.10000000000001));
#670=CARTESIAN_POINT('',(15.1,3.31064507457,3.10000000000001));
#671=VECTOR('',#792,1.0);
#672=CARTESIAN_POINT('',(0.0,2.747951770459,1.0));
#673=CARTESIAN_POINT('',(0.0,35.536719213103,123.36934601221));
#674=VECTOR('',#793,1.0);
#675=CARTESIAN_POINT('',(15.1,2.747951770459,1.0));
#676=VECTOR('',#794,1.0);
#678=CARTESIAN_POINT('',(15.1,-174.654306489985,1.0));
#679=VECTOR('',#795,1.0);
#680=CARTESIAN_POINT('',(0.0,-174.654306489985,1.0));
#681=VECTOR('',#796,1.0);
#683=CARTESIAN_POINT('',(15.1,7.18935492543199,3.10000000000001));
#684=CARTESIAN_POINT('',(15.1,-174.654306489985,3.10000000000001));
#685=VECTOR('',#797,1.0);
#686=CARTESIAN_POINT('',(0.0,7.18935492543199,3.10000000000001));
#687=CARTESIAN_POINT('',(15.1,7.18935492543199,3.10000000000001));
#688=VECTOR('',#798,1.0);
#689=CARTESIAN_POINT('',(0.0,-174.654306489985,3.10000000000001));
#690=VECTOR('',#799,1.0);
#692=CARTESIAN_POINT('',(15.1,0.0,3.10000000000001));
#693=CARTESIAN_POINT('',(15.1,0.0,123.36934601221));
#694=VECTOR('',#800,1.0);
#695=CARTESIAN_POINT('',(0.0,0.0,3.10000000000001));
#696=CARTESIAN_POINT('',(0.0,0.0,123.36934601221));
#697=VECTOR('',#801,1.0);
#698=CARTESIAN_POINT('',(15.1,0.0,3.10000000000001));
#699=VECTOR('',#802,1.0);
#701=CARTESIAN_POINT('',(15.1,-174.654306489985,3.10000000000001));
#702=VECTOR('',#803,1.0);
#703=CARTESIAN_POINT('',(0.0,-174.654306489985,3.10000000000001));
#704=VECTOR('',#804,1.0);
#706=CARTESIAN_POINT('',(15.1,7.75204822954299,1.0));
#707=CARTESIAN_POINT('',(15.1,-25.036719213065,123.36934601221));
#708=VECTOR('',#805,1.0);
#709=CARTESIAN_POINT('',(0.0,7.75204822954299,1.0));
#710=CARTESIAN_POINT('',(15.1,7.75204822954299,1.0));
#711=VECTOR('',#806,1.0);
#712=CARTESIAN_POINT('',(0.0,-25.036719213065,123.36934601221));
#713=VECTOR('',#807,1.0);
#715=CARTESIAN_POINT('',(15.1,2.42500000000101,0.0));
#716=CARTESIAN_POINT('',(15.1,-174.654306489985,0.0));
#717=VECTOR('',#808,1.0);
#718=CARTESIAN_POINT('',(0.0,2.42500000000101,0.0));
#719=CARTESIAN_POINT('',(15.1,2.42500000000101,0.0));
#720=VECTOR('',#809,1.0);
#721=CARTESIAN_POINT('',(0.0,-174.654306489985,0.0));
#722=VECTOR('',#810,1.0);
#724=CARTESIAN_POINT('',(15.1,-174.654306489985,1.0));
#725=VECTOR('',#811,1.0);
#726=CARTESIAN_POINT('',(0.0,-174.654306489985,1.0));
#727=VECTOR('',#812,1.0);
#729=CARTESIAN_POINT('',(15.1,8.07500000000098,0.0));
#730=AXIS2_PLACEMENT_3D('',#813,#814,#815);
#731=CARTESIAN_POINT('',(0.0,8.07500000000098,0.0));
#732=CARTESIAN_POINT('',(15.1,8.07500000000098,0.0));
#733=VECTOR('',#816,1.0);
#734=AXIS2_PLACEMENT_3D('',#817,#818,#819);
#736=CARTESIAN_POINT('',(15.1,6.46466159914499,3.10000000000001));
#737=CARTESIAN_POINT('',(15.1,-174.654306489985,3.10000000000001));
#738=VECTOR('',#820,1.0);
#739=CARTESIAN_POINT('',(0.0,6.46466159914499,3.10000000000001));
#740=CARTESIAN_POINT('',(0.0,-174.654306489985,3.10000000000001));
#741=VECTOR('',#821,1.0);
#742=CARTESIAN_POINT('',(15.1,6.46466159914499,3.10000000000001));
#743=VECTOR('',#822,1.0);
#745=CARTESIAN_POINT('',(15.1,7.295304095685,0.0));
#746=CARTESIAN_POINT('',(15.1,-174.654306489985,0.0));
#747=VECTOR('',#823,1.0);
#748=CARTESIAN_POINT('',(0.0,7.295304095685,0.0));
#749=CARTESIAN_POINT('',(15.1,7.295304095685,0.0));
#750=VECTOR('',#824,1.0);
#751=CARTESIAN_POINT('',(0.0,-174.654306489985,0.0));
#752=VECTOR('',#825,1.0);
#754=CARTESIAN_POINT('',(15.1,-25.761412539178,123.36934601221));
#755=VECTOR('',#826,1.0);
#756=CARTESIAN_POINT('',(0.0,-25.761412539178,123.36934601221));
#757=VECTOR('',#827,1.0);
#759=AXIS2_PLACEMENT_3D('',#828,#829,#830);
#760=AXIS2_PLACEMENT_3D('',#831,#832,#833);
#764=DIRECTION('',(-1.0,-0.0,-0.0));
#765=CARTESIAN_POINT('',(15.1,2.42500000000101,0.5));
#766=DIRECTION('',(-1.0,0.0,0.0));
#767=DIRECTION('',(0.0,-1.0,0.0));
#768=DIRECTION('',(-1.0,0.0,0.0));
#769=CARTESIAN_POINT('',(0.0,2.42500000000101,0.5));
#770=DIRECTION('',(-1.0,0.0,0.0));
#771=DIRECTION('',(0.0,-1.0,0.0));
#772=DIRECTION('',(1.0,0.0,0.0));
#773=CARTESIAN_POINT('',(0.0,8.07500000000098,0.5));
#774=DIRECTION('',(-1.0,0.0,0.0));
#775=DIRECTION('',(0.0,-1.0,0.0));
#776=DIRECTION('',(-1.0,0.0,0.0));
#777=CARTESIAN_POINT('',(15.1,8.07500000000098,0.5));
#778=DIRECTION('',(-1.0,0.0,0.0));
#779=DIRECTION('',(0.0,-1.0,0.0));
#780=DIRECTION('',(0.0,-0.258819045103983,-0.965925826288677));
#781=DIRECTION('',(1.0,0.0,0.0));
#782=DIRECTION('',(0.0,-0.258819045103983,-0.965925826288677));
#783=DIRECTION('',(-1.0,0.0,0.0));
#784=DIRECTION('',(0.0,1.0,0.0));
#785=DIRECTION('',(-1.0,0.0,0.0));
#786=DIRECTION('',(0.0,1.0,0.0));
#787=DIRECTION('',(1.0,0.0,0.0));
#788=DIRECTION('',(0.0,0.0,-1.0));
#789=DIRECTION('',(1.0,0.0,0.0));
#790=DIRECTION('',(0.0,0.0,-1.0));
#791=DIRECTION('',(0.0,-0.258819045105081,-0.965925826288382));
#792=DIRECTION('',(1.0,0.0,0.0));
#793=DIRECTION('',(0.0,-0.258819045105081,-0.965925826288382));
#794=DIRECTION('',(1.0,0.0,0.0));
#795=DIRECTION('',(0.0,-1.0,0.0));
#796=DIRECTION('',(0.0,-1.0,0.0));
#797=DIRECTION('',(0.0,-1.0,0.0));
#798=DIRECTION('',(-1.0,0.0,0.0));
#799=DIRECTION('',(0.0,-1.0,0.0));
#800=DIRECTION('',(0.0,0.0,1.0));
#801=DIRECTION('',(0.0,0.0,1.0));
#802=DIRECTION('',(-1.0,0.0,0.0));
#803=DIRECTION('',(0.0,-1.0,0.0));
#804=DIRECTION('',(0.0,-1.0,0.0));
#805=DIRECTION('',(-0.0,0.258819045104813,-0.965925826288454));
#806=DIRECTION('',(-1.0,0.0,0.0));
#807=DIRECTION('',(-0.0,0.258819045104813,-0.965925826288454));
#808=DIRECTION('',(0.0,-1.0,0.0));
#809=DIRECTION('',(-1.0,0.0,0.0));
#810=DIRECTION('',(0.0,-1.0,0.0));
#811=DIRECTION('',(0.0,-1.0,0.0));
#812=DIRECTION('',(0.0,-1.0,0.0));
#813=CARTESIAN_POINT('',(15.1,8.07500000000098,0.5));
#814=DIRECTION('',(-1.0,0.0,0.0));
#815=DIRECTION('',(0.0,-1.0,0.0));
#816=DIRECTION('',(-1.0,0.0,0.0));
#817=CARTESIAN_POINT('',(0.0,8.07500000000098,0.5));
#818=DIRECTION('',(-1.0,0.0,0.0));
#819=DIRECTION('',(0.0,-1.0,0.0));
#820=DIRECTION('',(0.0,-1.0,0.0));
#821=DIRECTION('',(0.0,-1.0,0.0));
#822=DIRECTION('',(1.0,0.0,0.0));
#823=DIRECTION('',(0.0,-1.0,0.0));
#824=DIRECTION('',(-1.0,0.0,0.0));
#825=DIRECTION('',(0.0,-1.0,0.0));
#826=DIRECTION('',(0.0,-0.258819045103513,0.965925826288803));
#827=DIRECTION('',(0.0,-0.258819045103513,0.965925826288803));
#828=CARTESIAN_POINT('',(0.0,2.42500000000101,0.5));
#829=DIRECTION('',(-1.0,0.0,0.0));
#830=DIRECTION('',(0.0,-1.0,0.0));
#831=CARTESIAN_POINT('',(15.1,2.42500000000101,0.5));
#832=DIRECTION('',(-1.0,0.0,0.0));
#833=DIRECTION('',(0.0,-1.0,0.0));
ENDSEC;
END-ISO-10303-21;

