ISO-10303-21;
HEADER;
FILE_DESCRIPTION(('STEP AP214'),'1');
FILE_NAME('cctmp_420B016E-7480-4DCC-B47C-616C7EC55FDC_2023_07_24_09_02_40_0440..stp','2023-07-24T07:02:40',('SIEMENS A&D'),('CADClick - www.CADClick.com'),'Spatial InterOp 3D postprocessed',' ','unknown authorization');
FILE_SCHEMA(('AUTOMOTIVE_DESIGN'));
ENDSEC;
DATA;
#1=MECHANICAL_DESIGN_GEOMETRIC_PRESENTATION_REPRESENTATION(' ',(#10,#11,#12,#13,#14,#15,#16,#17,#18,#19,#20,#21,#22,#23,#24,#25,#26,#27,#28,#29,#30),#6);
#2=PRODUCT_DEFINITION_CONTEXT('',#31,'design');
#3=APPLICATION_PROTOCOL_DEFINITION('INTERNATIONAL STANDARD','automotive_design',1994,#31);
#4=PRODUCT_CATEGORY_RELATIONSHIP('NONE','NONE',#32,#33);
#5=SHAPE_DEFINITION_REPRESENTATION(#34,#35);
#6= (GEOMETRIC_REPRESENTATION_CONTEXT(3)GLOBAL_UNCERTAINTY_ASSIGNED_CONTEXT((#38))GLOBAL_UNIT_ASSIGNED_CONTEXT((#40,#41,#42))REPRESENTATION_CONTEXT('NONE','WORKSPACE'));
#10=STYLED_ITEM('',(#44),#45);
#11=STYLED_ITEM('',(#46),#47);
#12=STYLED_ITEM('',(#48),#49);
#13=STYLED_ITEM('',(#50),#51);
#14=STYLED_ITEM('',(#52),#53);
#15=STYLED_ITEM('',(#54),#55);
#16=STYLED_ITEM('',(#56),#57);
#17=STYLED_ITEM('',(#58),#59);
#18=STYLED_ITEM('',(#60),#61);
#19=STYLED_ITEM('',(#62),#63);
#20=STYLED_ITEM('',(#64),#65);
#21=STYLED_ITEM('',(#66),#67);
#22=STYLED_ITEM('',(#68),#69);
#23=STYLED_ITEM('',(#70),#71);
#24=STYLED_ITEM('',(#72),#73);
#25=STYLED_ITEM('',(#74),#75);
#26=STYLED_ITEM('',(#76),#77);
#27=STYLED_ITEM('',(#78),#79);
#28=STYLED_ITEM('',(#80),#81);
#29=STYLED_ITEM('',(#82),#83);
#30=STYLED_ITEM('',(#84),#85);
#31=APPLICATION_CONTEXT(' ');
#32=PRODUCT_CATEGORY('part','NONE');
#33=PRODUCT_RELATED_PRODUCT_CATEGORY('detail',' ',(#86));
#34=PRODUCT_DEFINITION_SHAPE('NONE','NONE',#87);
#35=ADVANCED_BREP_SHAPE_REPRESENTATION('2023_07_24_09_02_40_0439',(#85,#88),#6);
#38=UNCERTAINTY_MEASURE_WITH_UNIT(LENGTH_MEASURE(1.0E-006),#40,'','');
#40= (CONVERSION_BASED_UNIT('MILLIMETRE',#91)LENGTH_UNIT()NAMED_UNIT(#94));
#41= (NAMED_UNIT(#96)PLANE_ANGLE_UNIT()SI_UNIT($,.RADIAN.));
#42= (NAMED_UNIT(#96)SOLID_ANGLE_UNIT()SI_UNIT($,.STERADIAN.));
#44=PRESENTATION_STYLE_ASSIGNMENT((#102));
#45=ADVANCED_FACE('',(#103),#104,.T.);
#46=PRESENTATION_STYLE_ASSIGNMENT((#105));
#47=ADVANCED_FACE('',(#106),#107,.T.);
#48=PRESENTATION_STYLE_ASSIGNMENT((#108));
#49=ADVANCED_FACE('',(#109),#110,.T.);
#50=PRESENTATION_STYLE_ASSIGNMENT((#111));
#51=ADVANCED_FACE('',(#112),#113,.T.);
#52=PRESENTATION_STYLE_ASSIGNMENT((#114));
#53=ADVANCED_FACE('',(#115),#116,.T.);
#54=PRESENTATION_STYLE_ASSIGNMENT((#117));
#55=ADVANCED_FACE('',(#118),#119,.T.);
#56=PRESENTATION_STYLE_ASSIGNMENT((#120));
#57=ADVANCED_FACE('',(#121),#122,.T.);
#58=PRESENTATION_STYLE_ASSIGNMENT((#123));
#59=ADVANCED_FACE('',(#124),#125,.T.);
#60=PRESENTATION_STYLE_ASSIGNMENT((#126));
#61=ADVANCED_FACE('',(#127),#128,.T.);
#62=PRESENTATION_STYLE_ASSIGNMENT((#129));
#63=ADVANCED_FACE('',(#130),#131,.T.);
#64=PRESENTATION_STYLE_ASSIGNMENT((#132));
#65=ADVANCED_FACE('',(#133),#134,.T.);
#66=PRESENTATION_STYLE_ASSIGNMENT((#135));
#67=ADVANCED_FACE('',(#136),#137,.T.);
#68=PRESENTATION_STYLE_ASSIGNMENT((#138));
#69=ADVANCED_FACE('',(#139),#140,.T.);
#70=PRESENTATION_STYLE_ASSIGNMENT((#141));
#71=ADVANCED_FACE('',(#142),#143,.T.);
#72=PRESENTATION_STYLE_ASSIGNMENT((#144));
#73=ADVANCED_FACE('',(#145),#146,.T.);
#74=PRESENTATION_STYLE_ASSIGNMENT((#147));
#75=ADVANCED_FACE('',(#148),#149,.T.);
#76=PRESENTATION_STYLE_ASSIGNMENT((#150));
#77=ADVANCED_FACE('',(#151),#152,.T.);
#78=PRESENTATION_STYLE_ASSIGNMENT((#153));
#79=ADVANCED_FACE('',(#154),#155,.T.);
#80=PRESENTATION_STYLE_ASSIGNMENT((#156));
#81=ADVANCED_FACE('',(#157),#158,.T.);
#82=PRESENTATION_STYLE_ASSIGNMENT((#159));
#83=ADVANCED_FACE('',(#160),#161,.F.);
#84=PRESENTATION_STYLE_ASSIGNMENT((#162));
#85=MANIFOLD_SOLID_BREP('2023_07_24_09_02_40_0439',#163);
#86=PRODUCT('2023_07_24_09_02_40_0439','','PART--DESC',(#164));
#87=PRODUCT_DEFINITION('','NONE',#165,#2);
#88=AXIS2_PLACEMENT_3D('',#166,#167,#168);
#91=LENGTH_MEASURE_WITH_UNIT(LENGTH_MEASURE(1.0),#169);
#94=DIMENSIONAL_EXPONENTS(1.0,0.0,0.0,0.0,0.0,0.0,0.0);
#96=DIMENSIONAL_EXPONENTS(0.0,0.0,0.0,0.0,0.0,0.0,0.0);
#102=SURFACE_STYLE_USAGE(.BOTH.,#170);
#103=FACE_OUTER_BOUND('',#171,.T.);
#104=CYLINDRICAL_SURFACE('',#172,0.5);
#105=SURFACE_STYLE_USAGE(.BOTH.,#170);
#106=FACE_OUTER_BOUND('',#174,.T.);
#107=CYLINDRICAL_SURFACE('',#175,0.5);
#108=SURFACE_STYLE_USAGE(.BOTH.,#170);
#109=FACE_OUTER_BOUND('',#177,.T.);
#110=PLANE('',#178);
#111=SURFACE_STYLE_USAGE(.BOTH.,#170);
#112=FACE_OUTER_BOUND('',#180,.T.);
#113=CYLINDRICAL_SURFACE('',#181,0.5);
#114=SURFACE_STYLE_USAGE(.BOTH.,#170);
#115=FACE_OUTER_BOUND('',#183,.T.);
#116=PLANE('',#184);
#117=SURFACE_STYLE_USAGE(.BOTH.,#170);
#118=FACE_OUTER_BOUND('',#186,.T.);
#119=PLANE('',#187);
#120=SURFACE_STYLE_USAGE(.BOTH.,#170);
#121=FACE_OUTER_BOUND('',#189,.T.);
#122=PLANE('',#190);
#123=SURFACE_STYLE_USAGE(.BOTH.,#170);
#124=FACE_OUTER_BOUND('',#192,.T.);
#125=PLANE('',#193);
#126=SURFACE_STYLE_USAGE(.BOTH.,#170);
#127=FACE_OUTER_BOUND('',#195,.T.);
#128=CYLINDRICAL_SURFACE('',#196,0.5);
#129=SURFACE_STYLE_USAGE(.BOTH.,#170);
#130=FACE_OUTER_BOUND('',#198,.T.);
#131=PLANE('',#199);
#132=SURFACE_STYLE_USAGE(.BOTH.,#170);
#133=FACE_OUTER_BOUND('',#201,.T.);
#134=PLANE('',#202);
#135=SURFACE_STYLE_USAGE(.BOTH.,#170);
#136=FACE_OUTER_BOUND('',#204,.T.);
#137=PLANE('',#205);
#138=SURFACE_STYLE_USAGE(.BOTH.,#170);
#139=FACE_OUTER_BOUND('',#207,.T.);
#140=PLANE('',#208);
#141=SURFACE_STYLE_USAGE(.BOTH.,#170);
#142=FACE_OUTER_BOUND('',#210,.T.);
#143=PLANE('',#211);
#144=SURFACE_STYLE_USAGE(.BOTH.,#170);
#145=FACE_OUTER_BOUND('',#213,.T.);
#146=PLANE('',#214);
#147=SURFACE_STYLE_USAGE(.BOTH.,#170);
#148=FACE_OUTER_BOUND('',#216,.T.);
#149=PLANE('',#217);
#150=SURFACE_STYLE_USAGE(.BOTH.,#170);
#151=FACE_OUTER_BOUND('',#219,.T.);
#152=PLANE('',#220);
#153=SURFACE_STYLE_USAGE(.BOTH.,#170);
#154=FACE_OUTER_BOUND('',#222,.T.);
#155=PLANE('',#223);
#156=SURFACE_STYLE_USAGE(.BOTH.,#170);
#157=FACE_OUTER_BOUND('',#225,.T.);
#158=PLANE('',#226);
#159=SURFACE_STYLE_USAGE(.BOTH.,#170);
#160=FACE_OUTER_BOUND('',#228,.T.);
#161=PLANE('',#229);
#162=SURFACE_STYLE_USAGE(.BOTH.,#230);
#163=CLOSED_SHELL('',(#45,#47,#49,#51,#53,#55,#57,#59,#61,#63,#65,#67,#69,#71,#73,#75,#77,#79,#81,#83));
#164=PRODUCT_CONTEXT('',#31,'mechanical');
#165=PRODUCT_DEFINITION_FORMATION_WITH_SPECIFIED_SOURCE(' ','NONE',#86,.NOT_KNOWN.);
#166=CARTESIAN_POINT('',(0.0,0.0,0.0));
#167=DIRECTION('',(0.0,0.0,1.0));
#168=DIRECTION('',(1.0,0.0,0.0));
#169= (NAMED_UNIT(#94)LENGTH_UNIT()SI_UNIT(.MILLI.,.METRE.));
#170=SURFACE_SIDE_STYLE('',(#232));
#171=EDGE_LOOP('',(#233,#234,#235,#236));
#172=AXIS2_PLACEMENT_3D('',#237,#238,#239);
#174=EDGE_LOOP('',(#241,#242,#243,#244));
#175=AXIS2_PLACEMENT_3D('',#245,#246,#247);
#177=EDGE_LOOP('',(#249,#250,#251,#252));
#178=AXIS2_PLACEMENT_3D('',#253,#254,#255);
#180=EDGE_LOOP('',(#257,#258,#259,#260));
#181=AXIS2_PLACEMENT_3D('',#261,#262,#263);
#183=EDGE_LOOP('',(#265,#266,#267,#268));
#184=AXIS2_PLACEMENT_3D('',#269,#270,#271);
#186=EDGE_LOOP('',(#273,#274,#275,#276));
#187=AXIS2_PLACEMENT_3D('',#277,#278,#279);
#189=EDGE_LOOP('',(#281,#282,#283,#284));
#190=AXIS2_PLACEMENT_3D('',#285,#286,#287);
#192=EDGE_LOOP('',(#289,#290,#291,#292));
#193=AXIS2_PLACEMENT_3D('',#293,#294,#295);
#195=EDGE_LOOP('',(#297,#298,#299,#300));
#196=AXIS2_PLACEMENT_3D('',#301,#302,#303);
#198=EDGE_LOOP('',(#305,#306,#307,#308));
#199=AXIS2_PLACEMENT_3D('',#309,#310,#311);
#201=EDGE_LOOP('',(#313,#314,#315,#316));
#202=AXIS2_PLACEMENT_3D('',#317,#318,#319);
#204=EDGE_LOOP('',(#321,#322,#323,#324));
#205=AXIS2_PLACEMENT_3D('',#325,#326,#327);
#207=EDGE_LOOP('',(#329,#330,#331,#332));
#208=AXIS2_PLACEMENT_3D('',#333,#334,#335);
#210=EDGE_LOOP('',(#337,#338,#339,#340));
#211=AXIS2_PLACEMENT_3D('',#341,#342,#343);
#213=EDGE_LOOP('',(#345,#346,#347,#348));
#214=AXIS2_PLACEMENT_3D('',#349,#350,#351);
#216=EDGE_LOOP('',(#353,#354,#355,#356));
#217=AXIS2_PLACEMENT_3D('',#357,#358,#359);
#219=EDGE_LOOP('',(#361,#362,#363,#364));
#220=AXIS2_PLACEMENT_3D('',#365,#366,#367);
#222=EDGE_LOOP('',(#369,#370,#371,#372));
#223=AXIS2_PLACEMENT_3D('',#373,#374,#375);
#225=EDGE_LOOP('',(#377,#378,#379,#380,#381,#382,#383,#384,#385,#386,#387,#388,#389,#390,#391,#392,#393,#394));
#226=AXIS2_PLACEMENT_3D('',#395,#396,#397);
#228=EDGE_LOOP('',(#399,#400,#401,#402,#403,#404,#405,#406,#407,#408,#409,#410,#411,#412,#413,#414,#415,#416));
#229=AXIS2_PLACEMENT_3D('',#417,#418,#419);
#230=SURFACE_SIDE_STYLE('',(#420));
#232=SURFACE_STYLE_FILL_AREA(#421);
#233=ORIENTED_EDGE('',*,*,#422,.F.);
#234=ORIENTED_EDGE('',*,*,#423,.F.);
#235=ORIENTED_EDGE('',*,*,#424,.F.);
#236=ORIENTED_EDGE('',*,*,#425,.T.);
#237=CARTESIAN_POINT('',(12.0,8.08839745962197,0.5));
#238=DIRECTION('',(1.0,0.0,0.0));
#239=DIRECTION('',(0.0,-1.0,0.0));
#241=ORIENTED_EDGE('',*,*,#427,.F.);
#242=ORIENTED_EDGE('',*,*,#428,.T.);
#243=ORIENTED_EDGE('',*,*,#429,.T.);
#244=ORIENTED_EDGE('',*,*,#430,.F.);
#245=CARTESIAN_POINT('',(12.0,2.438397459622,0.5));
#246=DIRECTION('',(1.0,0.0,0.0));
#247=DIRECTION('',(0.0,-1.0,0.0));
#249=ORIENTED_EDGE('',*,*,#432,.F.);
#250=ORIENTED_EDGE('',*,*,#424,.T.);
#251=ORIENTED_EDGE('',*,*,#433,.T.);
#252=ORIENTED_EDGE('',*,*,#434,.F.);
#253=CARTESIAN_POINT('',(12.0,8.08839745962197,1.0));
#254=DIRECTION('',(0.0,0.0,1.0));
#255=DIRECTION('',(0.0,-1.0,0.0));
#257=ORIENTED_EDGE('',*,*,#427,.T.);
#258=ORIENTED_EDGE('',*,*,#436,.F.);
#259=ORIENTED_EDGE('',*,*,#437,.F.);
#260=ORIENTED_EDGE('',*,*,#438,.T.);
#261=CARTESIAN_POINT('',(12.0,2.438397459622,0.5));
#262=DIRECTION('',(1.0,0.0,0.0));
#263=DIRECTION('',(0.0,-1.0,0.0));
#265=ORIENTED_EDGE('',*,*,#440,.F.);
#266=ORIENTED_EDGE('',*,*,#441,.F.);
#267=ORIENTED_EDGE('',*,*,#442,.F.);
#268=ORIENTED_EDGE('',*,*,#443,.T.);
#269=CARTESIAN_POINT('',(12.0,7.463397459623,3.10000000000001));
#270=DIRECTION('',(0.0,0.0,-1.0));
#271=DIRECTION('',(1.0,0.0,0.0));
#273=ORIENTED_EDGE('',*,*,#445,.F.);
#274=ORIENTED_EDGE('',*,*,#446,.F.);
#275=ORIENTED_EDGE('',*,*,#447,.F.);
#276=ORIENTED_EDGE('',*,*,#448,.F.);
#277=CARTESIAN_POINT('',(12.0,4.20220125807597,3.10000000000001));
#278=DIRECTION('',(0.0,0.0,-1.0));
#279=DIRECTION('',(1.0,0.0,0.0));
#281=ORIENTED_EDGE('',*,*,#450,.F.);
#282=ORIENTED_EDGE('',*,*,#437,.T.);
#283=ORIENTED_EDGE('',*,*,#451,.F.);
#284=ORIENTED_EDGE('',*,*,#452,.T.);
#285=CARTESIAN_POINT('',(12.0,2.438397459622,0.0));
#286=DIRECTION('',(0.0,0.0,-1.0));
#287=DIRECTION('',(1.0,0.0,0.0));
#289=ORIENTED_EDGE('',*,*,#454,.F.);
#290=ORIENTED_EDGE('',*,*,#455,.T.);
#291=ORIENTED_EDGE('',*,*,#456,.F.);
#292=ORIENTED_EDGE('',*,*,#457,.F.);
#293=CARTESIAN_POINT('',(12.0,7.769097748094,0.0));
#294=DIRECTION('',(0.0,0.0,-1.0));
#295=DIRECTION('',(1.0,0.0,0.0));
#297=ORIENTED_EDGE('',*,*,#422,.T.);
#298=ORIENTED_EDGE('',*,*,#459,.T.);
#299=ORIENTED_EDGE('',*,*,#457,.T.);
#300=ORIENTED_EDGE('',*,*,#460,.F.);
#301=CARTESIAN_POINT('',(12.0,8.08839745962197,0.5));
#302=DIRECTION('',(1.0,0.0,0.0));
#303=DIRECTION('',(0.0,-1.0,0.0));
#305=ORIENTED_EDGE('',*,*,#462,.F.);
#306=ORIENTED_EDGE('',*,*,#463,.T.);
#307=ORIENTED_EDGE('',*,*,#464,.F.);
#308=ORIENTED_EDGE('',*,*,#465,.T.);
#309=CARTESIAN_POINT('',(12.0,0.213397459621973,3.10000000000001));
#310=DIRECTION('',(0.0,0.0,-1.0));
#311=DIRECTION('',(1.0,0.0,0.0));
#313=ORIENTED_EDGE('',*,*,#467,.F.);
#314=ORIENTED_EDGE('',*,*,#434,.T.);
#315=ORIENTED_EDGE('',*,*,#468,.F.);
#316=ORIENTED_EDGE('',*,*,#441,.T.);
#317=CARTESIAN_POINT('',(6.6,7.69246857804799,1.22235428647001));
#318=DIRECTION('',(0.0,0.965925826288454,0.258819045104813));
#319=DIRECTION('',(-1.0,0.0,0.0));
#321=ORIENTED_EDGE('',*,*,#470,.F.);
#322=ORIENTED_EDGE('',*,*,#471,.F.);
#323=ORIENTED_EDGE('',*,*,#472,.T.);
#324=ORIENTED_EDGE('',*,*,#429,.F.);
#325=CARTESIAN_POINT('',(12.0,2.53115113368798,1.0));
#326=DIRECTION('',(0.0,0.0,1.0));
#327=DIRECTION('',(0.0,-1.0,0.0));
#329=ORIENTED_EDGE('',*,*,#474,.T.);
#330=ORIENTED_EDGE('',*,*,#452,.F.);
#331=ORIENTED_EDGE('',*,*,#475,.F.);
#332=ORIENTED_EDGE('',*,*,#446,.T.);
#333=CARTESIAN_POINT('',(6.6,3.32385520730199,0.444708572937998));
#334=DIRECTION('',(0.0,0.965925826288677,-0.258819045103983));
#335=DIRECTION('',(0.0,0.258819045103983,0.965925826288677));
#337=ORIENTED_EDGE('',*,*,#477,.F.);
#338=ORIENTED_EDGE('',*,*,#478,.F.);
#339=ORIENTED_EDGE('',*,*,#479,.F.);
#340=ORIENTED_EDGE('',*,*,#463,.F.);
#341=CARTESIAN_POINT('',(6.6,0.0,4.0));
#342=DIRECTION('',(0.0,-1.0,0.0));
#343=DIRECTION('',(0.0,0.0,1.0));
#345=ORIENTED_EDGE('',*,*,#481,.F.);
#346=ORIENTED_EDGE('',*,*,#465,.F.);
#347=ORIENTED_EDGE('',*,*,#482,.T.);
#348=ORIENTED_EDGE('',*,*,#471,.T.);
#349=CARTESIAN_POINT('',(12.0,3.25658262488099,2.848236190981));
#350=DIRECTION('',(0.0,-0.965925826288382,0.258819045105081));
#351=DIRECTION('',(1.0,0.0,0.0));
#353=ORIENTED_EDGE('',*,*,#484,.F.);
#354=ORIENTED_EDGE('',*,*,#448,.T.);
#355=ORIENTED_EDGE('',*,*,#485,.F.);
#356=ORIENTED_EDGE('',*,*,#455,.F.);
#357=CARTESIAN_POINT('',(6.6,6.50438136680597,2.951763809021));
#358=DIRECTION('',(0.0,-0.965925826288803,-0.258819045103513));
#359=DIRECTION('',(1.0,0.0,0.0));
#361=ORIENTED_EDGE('',*,*,#487,.F.);
#362=ORIENTED_EDGE('',*,*,#443,.F.);
#363=ORIENTED_EDGE('',*,*,#488,.F.);
#364=ORIENTED_EDGE('',*,*,#489,.F.);
#365=CARTESIAN_POINT('',(6.6,10.5,3.3));
#366=DIRECTION('',(0.0,1.0,0.0));
#367=DIRECTION('',(-1.0,0.0,0.0));
#369=ORIENTED_EDGE('',*,*,#491,.F.);
#370=ORIENTED_EDGE('',*,*,#489,.T.);
#371=ORIENTED_EDGE('',*,*,#492,.F.);
#372=ORIENTED_EDGE('',*,*,#478,.T.);
#373=CARTESIAN_POINT('',(12.0,10.313397459622,4.2));
#374=DIRECTION('',(0.0,0.0,1.0));
#375=DIRECTION('',(0.0,-1.0,0.0));
#377=ORIENTED_EDGE('',*,*,#447,.T.);
#378=ORIENTED_EDGE('',*,*,#475,.T.);
#379=ORIENTED_EDGE('',*,*,#451,.T.);
#380=ORIENTED_EDGE('',*,*,#436,.T.);
#381=ORIENTED_EDGE('',*,*,#430,.T.);
#382=ORIENTED_EDGE('',*,*,#472,.F.);
#383=ORIENTED_EDGE('',*,*,#482,.F.);
#384=ORIENTED_EDGE('',*,*,#464,.T.);
#385=ORIENTED_EDGE('',*,*,#479,.T.);
#386=ORIENTED_EDGE('',*,*,#492,.T.);
#387=ORIENTED_EDGE('',*,*,#488,.T.);
#388=ORIENTED_EDGE('',*,*,#442,.T.);
#389=ORIENTED_EDGE('',*,*,#468,.T.);
#390=ORIENTED_EDGE('',*,*,#433,.F.);
#391=ORIENTED_EDGE('',*,*,#423,.T.);
#392=ORIENTED_EDGE('',*,*,#460,.T.);
#393=ORIENTED_EDGE('',*,*,#456,.T.);
#394=ORIENTED_EDGE('',*,*,#485,.T.);
#395=CARTESIAN_POINT('',(0.0,-174.640909030364,123.36934601221));
#396=DIRECTION('',(-1.0,0.0,0.0));
#397=DIRECTION('',(0.0,-1.0,0.0));
#399=ORIENTED_EDGE('',*,*,#462,.T.);
#400=ORIENTED_EDGE('',*,*,#481,.T.);
#401=ORIENTED_EDGE('',*,*,#470,.T.);
#402=ORIENTED_EDGE('',*,*,#428,.F.);
#403=ORIENTED_EDGE('',*,*,#438,.F.);
#404=ORIENTED_EDGE('',*,*,#450,.T.);
#405=ORIENTED_EDGE('',*,*,#474,.F.);
#406=ORIENTED_EDGE('',*,*,#445,.T.);
#407=ORIENTED_EDGE('',*,*,#484,.T.);
#408=ORIENTED_EDGE('',*,*,#454,.T.);
#409=ORIENTED_EDGE('',*,*,#459,.F.);
#410=ORIENTED_EDGE('',*,*,#425,.F.);
#411=ORIENTED_EDGE('',*,*,#432,.T.);
#412=ORIENTED_EDGE('',*,*,#467,.T.);
#413=ORIENTED_EDGE('',*,*,#440,.T.);
#414=ORIENTED_EDGE('',*,*,#487,.T.);
#415=ORIENTED_EDGE('',*,*,#491,.T.);
#416=ORIENTED_EDGE('',*,*,#477,.T.);
#417=CARTESIAN_POINT('',(8.15,-174.654306489986,123.36934601221));
#418=DIRECTION('',(-1.0,0.0,0.0));
#419=DIRECTION('',(0.0,-1.0,0.0));
#420=SURFACE_STYLE_FILL_AREA(#495);
#421=FILL_AREA_STYLE('',(#496));
#422=EDGE_CURVE('',#497,#498,#499,.T.);
#423=EDGE_CURVE('',#500,#497,#501,.T.);
#424=EDGE_CURVE('',#502,#500,#503,.T.);
#425=EDGE_CURVE('',#502,#498,#504,.T.);
#427=EDGE_CURVE('',#506,#507,#508,.T.);
#428=EDGE_CURVE('',#506,#509,#510,.T.);
#429=EDGE_CURVE('',#509,#511,#512,.T.);
#430=EDGE_CURVE('',#507,#511,#513,.T.);
#432=EDGE_CURVE('',#502,#515,#516,.T.);
#433=EDGE_CURVE('',#500,#517,#518,.T.);
#434=EDGE_CURVE('',#515,#517,#519,.T.);
#436=EDGE_CURVE('',#521,#507,#522,.T.);
#437=EDGE_CURVE('',#523,#521,#524,.T.);
#438=EDGE_CURVE('',#523,#506,#525,.T.);
#440=EDGE_CURVE('',#527,#528,#529,.T.);
#441=EDGE_CURVE('',#530,#527,#531,.T.);
#442=EDGE_CURVE('',#532,#530,#533,.T.);
#443=EDGE_CURVE('',#532,#528,#534,.T.);
#445=EDGE_CURVE('',#536,#537,#538,.T.);
#446=EDGE_CURVE('',#539,#536,#540,.T.);
#447=EDGE_CURVE('',#541,#539,#542,.T.);
#448=EDGE_CURVE('',#537,#541,#543,.T.);
#450=EDGE_CURVE('',#523,#545,#546,.T.);
#451=EDGE_CURVE('',#547,#521,#548,.T.);
#452=EDGE_CURVE('',#547,#545,#549,.T.);
#454=EDGE_CURVE('',#551,#552,#553,.T.);
#455=EDGE_CURVE('',#551,#554,#555,.T.);
#456=EDGE_CURVE('',#556,#554,#557,.T.);
#457=EDGE_CURVE('',#552,#556,#558,.T.);
#459=EDGE_CURVE('',#498,#552,#560,.T.);
#460=EDGE_CURVE('',#497,#556,#561,.T.);
#462=EDGE_CURVE('',#563,#564,#565,.T.);
#463=EDGE_CURVE('',#563,#566,#567,.T.);
#464=EDGE_CURVE('',#568,#566,#569,.T.);
#465=EDGE_CURVE('',#568,#564,#570,.T.);
#467=EDGE_CURVE('',#515,#527,#572,.T.);
#468=EDGE_CURVE('',#530,#517,#573,.T.);
#470=EDGE_CURVE('',#575,#509,#576,.T.);
#471=EDGE_CURVE('',#577,#575,#578,.T.);
#472=EDGE_CURVE('',#577,#511,#579,.T.);
#474=EDGE_CURVE('',#536,#545,#581,.T.);
#475=EDGE_CURVE('',#539,#547,#582,.T.);
#477=EDGE_CURVE('',#584,#563,#585,.T.);
#478=EDGE_CURVE('',#586,#584,#587,.T.);
#479=EDGE_CURVE('',#566,#586,#588,.T.);
#481=EDGE_CURVE('',#564,#575,#590,.T.);
#482=EDGE_CURVE('',#568,#577,#591,.T.);
#484=EDGE_CURVE('',#537,#551,#593,.T.);
#485=EDGE_CURVE('',#554,#541,#594,.T.);
#487=EDGE_CURVE('',#528,#596,#597,.T.);
#488=EDGE_CURVE('',#598,#532,#599,.T.);
#489=EDGE_CURVE('',#596,#598,#600,.T.);
#491=EDGE_CURVE('',#596,#584,#602,.T.);
#492=EDGE_CURVE('',#586,#598,#603,.T.);
#495=FILL_AREA_STYLE('',(#606));
#496=FILL_AREA_STYLE_COLOUR('',#607);
#497=VERTEX_POINT('',#608);
#498=VERTEX_POINT('',#609);
#499=LINE('',#610,#611);
#500=VERTEX_POINT('',#612);
#501=CIRCLE('',#613,0.5);
#502=VERTEX_POINT('',#614);
#503=LINE('',#615,#616);
#504=CIRCLE('',#617,0.5);
#506=VERTEX_POINT('',#619);
#507=VERTEX_POINT('',#620);
#508=LINE('',#621,#622);
#509=VERTEX_POINT('',#623);
#510=CIRCLE('',#624,0.5);
#511=VERTEX_POINT('',#625);
#512=LINE('',#626,#627);
#513=CIRCLE('',#628,0.500000000000199);
#515=VERTEX_POINT('',#630);
#516=LINE('',#631,#632);
#517=VERTEX_POINT('',#633);
#518=LINE('',#634,#635);
#519=LINE('',#636,#637);
#521=VERTEX_POINT('',#639);
#522=CIRCLE('',#640,0.500000000000199);
#523=VERTEX_POINT('',#641);
#524=LINE('',#642,#643);
#525=CIRCLE('',#644,0.5);
#527=VERTEX_POINT('',#646);
#528=VERTEX_POINT('',#647);
#529=LINE('',#648,#649);
#530=VERTEX_POINT('',#650);
#531=LINE('',#651,#652);
#532=VERTEX_POINT('',#653);
#533=LINE('',#654,#655);
#534=LINE('',#656,#657);
#536=VERTEX_POINT('',#659);
#537=VERTEX_POINT('',#660);
#538=LINE('',#661,#662);
#539=VERTEX_POINT('',#663);
#540=LINE('',#664,#665);
#541=VERTEX_POINT('',#666);
#542=LINE('',#667,#668);
#543=LINE('',#669,#670);
#545=VERTEX_POINT('',#672);
#546=LINE('',#673,#674);
#547=VERTEX_POINT('',#675);
#548=LINE('',#676,#677);
#549=LINE('',#678,#679);
#551=VERTEX_POINT('',#681);
#552=VERTEX_POINT('',#682);
#553=LINE('',#683,#684);
#554=VERTEX_POINT('',#685);
#555=LINE('',#686,#687);
#556=VERTEX_POINT('',#688);
#557=LINE('',#689,#690);
#558=LINE('',#691,#692);
#560=CIRCLE('',#694,0.5);
#561=CIRCLE('',#695,0.5);
#563=VERTEX_POINT('',#697);
#564=VERTEX_POINT('',#698);
#565=LINE('',#699,#700);
#566=VERTEX_POINT('',#701);
#567=LINE('',#702,#703);
#568=VERTEX_POINT('',#704);
#569=LINE('',#705,#706);
#570=LINE('',#707,#708);
#572=LINE('',#710,#711);
#573=LINE('',#712,#713);
#575=VERTEX_POINT('',#715);
#576=LINE('',#716,#717);
#577=VERTEX_POINT('',#718);
#578=LINE('',#719,#720);
#579=LINE('',#721,#722);
#581=LINE('',#724,#725);
#582=LINE('',#726,#727);
#584=VERTEX_POINT('',#729);
#585=LINE('',#730,#731);
#586=VERTEX_POINT('',#732);
#587=LINE('',#733,#734);
#588=LINE('',#735,#736);
#590=LINE('',#738,#739);
#591=LINE('',#740,#741);
#593=LINE('',#743,#744);
#594=LINE('',#745,#746);
#596=VERTEX_POINT('',#748);
#597=LINE('',#749,#750);
#598=VERTEX_POINT('',#751);
#599=LINE('',#752,#753);
#600=LINE('',#754,#755);
#602=LINE('',#757,#758);
#603=LINE('',#759,#760);
#606=FILL_AREA_STYLE_COLOUR('',#763);
#607=COLOUR_RGB('',0.980392158031464,1.0,1.0);
#608=CARTESIAN_POINT('',(0.0,8.58839745962197,0.5));
#609=CARTESIAN_POINT('',(8.15,8.58839745962197,0.5));
#610=CARTESIAN_POINT('',(4.075,8.58839745962197,0.5));
#611=VECTOR('',#764,1.0);
#612=CARTESIAN_POINT('',(0.0,8.08839745962197,1.0));
#613=AXIS2_PLACEMENT_3D('',#765,#766,#767);
#614=CARTESIAN_POINT('',(8.15,8.08839745962197,1.0));
#615=CARTESIAN_POINT('',(12.0,8.08839745962197,1.0));
#616=VECTOR('',#768,1.0);
#617=AXIS2_PLACEMENT_3D('',#769,#770,#771);
#619=CARTESIAN_POINT('',(8.15,1.938397459622,0.5));
#620=CARTESIAN_POINT('',(0.0,1.9383974596218,0.5));
#621=CARTESIAN_POINT('',(4.075,1.938397459622,0.5));
#622=VECTOR('',#772,1.0);
#623=CARTESIAN_POINT('',(8.15,2.438397459622,1.0));
#624=AXIS2_PLACEMENT_3D('',#773,#774,#775);
#625=CARTESIAN_POINT('',(0.0,2.438397459622,1.0));
#626=CARTESIAN_POINT('',(12.0,2.438397459622,1.0));
#627=VECTOR('',#776,1.0);
#628=AXIS2_PLACEMENT_3D('',#777,#778,#779);
#630=CARTESIAN_POINT('',(8.15,7.752048229542,1.0));
#631=CARTESIAN_POINT('',(8.15,-174.640909030364,1.0));
#632=VECTOR('',#780,1.0);
#633=CARTESIAN_POINT('',(0.0,7.752048229542,1.0));
#634=CARTESIAN_POINT('',(0.0,-174.640909030364,1.0));
#635=VECTOR('',#781,1.0);
#636=CARTESIAN_POINT('',(12.0,7.752048229542,1.0));
#637=VECTOR('',#782,1.0);
#639=CARTESIAN_POINT('',(0.0,2.438397459622,0.0));
#640=AXIS2_PLACEMENT_3D('',#783,#784,#785);
#641=CARTESIAN_POINT('',(8.15,2.438397459622,0.0));
#642=CARTESIAN_POINT('',(12.0,2.438397459622,0.0));
#643=VECTOR('',#786,1.0);
#644=AXIS2_PLACEMENT_3D('',#787,#788,#789);
#646=CARTESIAN_POINT('',(8.15,7.18935492543099,3.10000000000001));
#647=CARTESIAN_POINT('',(8.15,10.5,3.10000000000001));
#648=CARTESIAN_POINT('',(8.15,-174.640909030364,3.10000000000001));
#649=VECTOR('',#790,1.0);
#650=CARTESIAN_POINT('',(0.0,7.18935492543099,3.10000000000001));
#651=CARTESIAN_POINT('',(12.0,7.18935492543099,3.10000000000001));
#652=VECTOR('',#791,1.0);
#653=CARTESIAN_POINT('',(0.0,10.5,3.10000000000001));
#654=CARTESIAN_POINT('',(0.0,-174.640909030364,3.10000000000001));
#655=VECTOR('',#792,1.0);
#656=CARTESIAN_POINT('',(12.0,10.5,3.10000000000001));
#657=VECTOR('',#793,1.0);
#659=CARTESIAN_POINT('',(8.15,4.03533840085697,3.10000000000001));
#660=CARTESIAN_POINT('',(8.15,6.46466159914399,3.10000000000001));
#661=CARTESIAN_POINT('',(8.15,-174.640909030364,3.10000000000001));
#662=VECTOR('',#794,1.0);
#663=CARTESIAN_POINT('',(0.0,4.03533840085697,3.10000000000001));
#664=CARTESIAN_POINT('',(12.0,4.03533840085697,3.10000000000001));
#665=VECTOR('',#795,1.0);
#666=CARTESIAN_POINT('',(0.0,6.46466159914399,3.10000000000001));
#667=CARTESIAN_POINT('',(0.0,-174.640909030364,3.10000000000001));
#668=VECTOR('',#796,1.0);
#669=CARTESIAN_POINT('',(12.0,6.46466159914399,3.10000000000001));
#670=VECTOR('',#797,1.0);
#672=CARTESIAN_POINT('',(8.15,3.20469590431497,0.0));
#673=CARTESIAN_POINT('',(8.15,-174.640909030364,0.0));
#674=VECTOR('',#798,1.0);
#675=CARTESIAN_POINT('',(0.0,3.20469590431497,0.0));
#676=CARTESIAN_POINT('',(0.0,-174.640909030364,0.0));
#677=VECTOR('',#799,1.0);
#678=CARTESIAN_POINT('',(12.0,3.20469590431497,0.0));
#679=VECTOR('',#800,1.0);
#681=CARTESIAN_POINT('',(8.15,7.29530409568397,0.0));
#682=CARTESIAN_POINT('',(8.15,8.08839745962197,0.0));
#683=CARTESIAN_POINT('',(8.15,-174.640909030364,0.0));
#684=VECTOR('',#801,1.0);
#685=CARTESIAN_POINT('',(0.0,7.29530409568397,0.0));
#686=CARTESIAN_POINT('',(12.0,7.29530409568397,0.0));
#687=VECTOR('',#802,1.0);
#688=CARTESIAN_POINT('',(0.0,8.08839745962197,0.0));
#689=CARTESIAN_POINT('',(0.0,-174.640909030364,0.0));
#690=VECTOR('',#803,1.0);
#691=CARTESIAN_POINT('',(12.0,8.08839745962197,0.0));
#692=VECTOR('',#804,1.0);
#694=AXIS2_PLACEMENT_3D('',#805,#806,#807);
#695=AXIS2_PLACEMENT_3D('',#808,#809,#810);
#697=CARTESIAN_POINT('',(8.15,0.0,3.10000000000001));
#698=CARTESIAN_POINT('',(8.15,3.32404253419099,3.10000000000001));
#699=CARTESIAN_POINT('',(8.15,-174.640909030364,3.10000000000001));
#700=VECTOR('',#811,1.0);
#701=CARTESIAN_POINT('',(0.0,0.0,3.10000000000001));
#702=CARTESIAN_POINT('',(12.0,0.0,3.10000000000001));
#703=VECTOR('',#812,1.0);
#704=CARTESIAN_POINT('',(0.0,3.32404253419099,3.10000000000001));
#705=CARTESIAN_POINT('',(0.0,-174.640909030364,3.10000000000001));
#706=VECTOR('',#813,1.0);
#707=CARTESIAN_POINT('',(12.0,3.32404253419099,3.10000000000001));
#708=VECTOR('',#814,1.0);
#710=CARTESIAN_POINT('',(8.15,-25.036719213066,123.36934601221));
#711=VECTOR('',#815,1.0);
#712=CARTESIAN_POINT('',(0.0,-25.036719213066,123.36934601221));
#713=VECTOR('',#816,1.0);
#715=CARTESIAN_POINT('',(8.15,2.76134923007999,1.0));
#716=CARTESIAN_POINT('',(8.15,-174.640909030364,1.0));
#717=VECTOR('',#817,1.0);
#718=CARTESIAN_POINT('',(0.0,2.76134923007999,1.0));
#719=CARTESIAN_POINT('',(12.0,2.76134923007999,1.0));
#720=VECTOR('',#818,1.0);
#721=CARTESIAN_POINT('',(0.0,-174.640909030364,1.0));
#722=VECTOR('',#819,1.0);
#724=CARTESIAN_POINT('',(8.15,36.261412539243,123.36934601221));
#725=VECTOR('',#820,1.0);
#726=CARTESIAN_POINT('',(0.0,36.261412539243,123.36934601221));
#727=VECTOR('',#821,1.0);
#729=CARTESIAN_POINT('',(8.15,0.0,4.2));
#730=CARTESIAN_POINT('',(8.15,0.0,123.36934601221));
#731=VECTOR('',#822,1.0);
#732=CARTESIAN_POINT('',(0.0,0.0,4.2));
#733=CARTESIAN_POINT('',(12.0,0.0,4.2));
#734=VECTOR('',#823,1.0);
#735=CARTESIAN_POINT('',(0.0,0.0,123.36934601221));
#736=VECTOR('',#824,1.0);
#738=CARTESIAN_POINT('',(8.15,35.550116672724,123.36934601221));
#739=VECTOR('',#825,1.0);
#740=CARTESIAN_POINT('',(0.0,35.550116672724,123.36934601221));
#741=VECTOR('',#826,1.0);
#743=CARTESIAN_POINT('',(8.15,-25.761412539179,123.36934601221));
#744=VECTOR('',#827,1.0);
#745=CARTESIAN_POINT('',(0.0,-25.761412539179,123.36934601221));
#746=VECTOR('',#828,1.0);
#748=CARTESIAN_POINT('',(8.15,10.5,4.2));
#749=CARTESIAN_POINT('',(8.15,10.5,123.36934601221));
#750=VECTOR('',#829,1.0);
#751=CARTESIAN_POINT('',(0.0,10.5,4.2));
#752=CARTESIAN_POINT('',(0.0,10.5,123.36934601221));
#753=VECTOR('',#830,1.0);
#754=CARTESIAN_POINT('',(12.0,10.5,4.2));
#755=VECTOR('',#831,1.0);
#757=CARTESIAN_POINT('',(8.15,-174.640909030364,4.2));
#758=VECTOR('',#832,1.0);
#759=CARTESIAN_POINT('',(0.0,-174.640909030364,4.2));
#760=VECTOR('',#833,1.0);
#763=COLOUR_RGB('',0.980392217636108,1.0,1.0);
#764=DIRECTION('',(1.0,0.0,0.0));
#765=CARTESIAN_POINT('',(0.0,8.08839745962197,0.5));
#766=DIRECTION('',(-1.0,0.0,0.0));
#767=DIRECTION('',(0.0,-1.0,0.0));
#768=DIRECTION('',(-1.0,0.0,0.0));
#769=CARTESIAN_POINT('',(8.15,8.08839745962197,0.5));
#770=DIRECTION('',(-1.0,0.0,0.0));
#771=DIRECTION('',(0.0,-1.0,0.0));
#772=DIRECTION('',(-1.0,-0.0,-0.0));
#773=CARTESIAN_POINT('',(8.15,2.438397459622,0.5));
#774=DIRECTION('',(-1.0,0.0,0.0));
#775=DIRECTION('',(0.0,-1.0,0.0));
#776=DIRECTION('',(-1.0,0.0,0.0));
#777=CARTESIAN_POINT('',(0.0,2.438397459622,0.5));
#778=DIRECTION('',(-1.0,0.0,0.0));
#779=DIRECTION('',(0.0,-1.0,0.0));
#780=DIRECTION('',(0.0,-1.0,0.0));
#781=DIRECTION('',(0.0,-1.0,0.0));
#782=DIRECTION('',(-1.0,0.0,0.0));
#783=CARTESIAN_POINT('',(0.0,2.438397459622,0.5));
#784=DIRECTION('',(-1.0,0.0,0.0));
#785=DIRECTION('',(0.0,-1.0,0.0));
#786=DIRECTION('',(-1.0,0.0,0.0));
#787=CARTESIAN_POINT('',(8.15,2.438397459622,0.5));
#788=DIRECTION('',(-1.0,0.0,0.0));
#789=DIRECTION('',(0.0,-1.0,0.0));
#790=DIRECTION('',(0.0,1.0,0.0));
#791=DIRECTION('',(1.0,0.0,0.0));
#792=DIRECTION('',(0.0,-1.0,0.0));
#793=DIRECTION('',(1.0,0.0,0.0));
#794=DIRECTION('',(0.0,1.0,0.0));
#795=DIRECTION('',(1.0,0.0,0.0));
#796=DIRECTION('',(0.0,-1.0,0.0));
#797=DIRECTION('',(-1.0,0.0,0.0));
#798=DIRECTION('',(0.0,1.0,0.0));
#799=DIRECTION('',(0.0,-1.0,0.0));
#800=DIRECTION('',(1.0,0.0,0.0));
#801=DIRECTION('',(0.0,1.0,0.0));
#802=DIRECTION('',(-1.0,0.0,0.0));
#803=DIRECTION('',(0.0,-1.0,0.0));
#804=DIRECTION('',(-1.0,0.0,0.0));
#805=CARTESIAN_POINT('',(8.15,8.08839745962197,0.5));
#806=DIRECTION('',(-1.0,0.0,0.0));
#807=DIRECTION('',(0.0,-1.0,0.0));
#808=CARTESIAN_POINT('',(0.0,8.08839745962197,0.5));
#809=DIRECTION('',(-1.0,0.0,0.0));
#810=DIRECTION('',(0.0,-1.0,0.0));
#811=DIRECTION('',(0.0,1.0,0.0));
#812=DIRECTION('',(-1.0,0.0,0.0));
#813=DIRECTION('',(0.0,-1.0,0.0));
#814=DIRECTION('',(1.0,0.0,0.0));
#815=DIRECTION('',(0.0,-0.258819045104813,0.965925826288454));
#816=DIRECTION('',(-0.0,0.258819045104813,-0.965925826288454));
#817=DIRECTION('',(0.0,-1.0,0.0));
#818=DIRECTION('',(1.0,0.0,0.0));
#819=DIRECTION('',(0.0,-1.0,0.0));
#820=DIRECTION('',(0.0,-0.258819045103983,-0.965925826288677));
#821=DIRECTION('',(0.0,-0.258819045103983,-0.965925826288677));
#822=DIRECTION('',(0.0,0.0,-1.0));
#823=DIRECTION('',(1.0,0.0,0.0));
#824=DIRECTION('',(0.0,0.0,1.0));
#825=DIRECTION('',(0.0,-0.258819045105081,-0.965925826288382));
#826=DIRECTION('',(0.0,-0.258819045105081,-0.965925826288382));
#827=DIRECTION('',(-0.0,0.258819045103513,-0.965925826288803));
#828=DIRECTION('',(0.0,-0.258819045103513,0.965925826288803));
#829=DIRECTION('',(0.0,0.0,1.0));
#830=DIRECTION('',(0.0,0.0,-1.0));
#831=DIRECTION('',(-1.0,0.0,0.0));
#832=DIRECTION('',(0.0,-1.0,0.0));
#833=DIRECTION('',(0.0,1.0,0.0));
ENDSEC;
END-ISO-10303-21;

