ISO-10303-21;
HEADER;
FILE_DESCRIPTION(('STEP AP214'),'1');
FILE_NAME('cctmp_6F3557E0-2149-4026-83AC-943FCD33C498_2023_07_24_09_02_09_0548..stp','2023-07-24T07:02:09',('SIEMENS A&D'),('CADClick - www.CADClick.com'),'Spatial InterOp 3D postprocessed',' ','unknown authorization');
FILE_SCHEMA(('AUTOMOTIVE_DESIGN'));
ENDSEC;
DATA;
#1=MECHANICAL_DESIGN_GEOMETRIC_PRESENTATION_REPRESENTATION(' ',(#10,#11,#12,#13,#14,#15,#16,#17,#18,#19,#20,#21,#22,#23,#24,#25,#26,#27,#28,#29,#30),#6);
#2=PRODUCT_DEFINITION_CONTEXT('',#31,'design');
#3=APPLICATION_PROTOCOL_DEFINITION('INTERNATIONAL STANDARD','automotive_design',1994,#31);
#4=PRODUCT_CATEGORY_RELATIONSHIP('NONE','NONE',#32,#33);
#5=SHAPE_DEFINITION_REPRESENTATION(#34,#35);
#6= (GEOMETRIC_REPRESENTATION_CONTEXT(3)GLOBAL_UNCERTAINTY_ASSIGNED_CONTEXT((#38))GLOBAL_UNIT_ASSIGNED_CONTEXT((#40,#41,#42))REPRESENTATION_CONTEXT('NONE','WORKSPACE'));
#10=STYLED_ITEM('',(#44),#45);
#11=STYLED_ITEM('',(#46),#47);
#12=STYLED_ITEM('',(#48),#49);
#13=STYLED_ITEM('',(#50),#51);
#14=STYLED_ITEM('',(#52),#53);
#15=STYLED_ITEM('',(#54),#55);
#16=STYLED_ITEM('',(#56),#57);
#17=STYLED_ITEM('',(#58),#59);
#18=STYLED_ITEM('',(#60),#61);
#19=STYLED_ITEM('',(#62),#63);
#20=STYLED_ITEM('',(#64),#65);
#21=STYLED_ITEM('',(#66),#67);
#22=STYLED_ITEM('',(#68),#69);
#23=STYLED_ITEM('',(#70),#71);
#24=STYLED_ITEM('',(#72),#73);
#25=STYLED_ITEM('',(#74),#75);
#26=STYLED_ITEM('',(#76),#77);
#27=STYLED_ITEM('',(#78),#79);
#28=STYLED_ITEM('',(#80),#81);
#29=STYLED_ITEM('',(#82),#83);
#30=STYLED_ITEM('',(#84),#85);
#31=APPLICATION_CONTEXT(' ');
#32=PRODUCT_CATEGORY('part','NONE');
#33=PRODUCT_RELATED_PRODUCT_CATEGORY('detail',' ',(#86));
#34=PRODUCT_DEFINITION_SHAPE('NONE','NONE',#87);
#35=ADVANCED_BREP_SHAPE_REPRESENTATION('2023_07_24_09_02_09_0547',(#85,#88),#6);
#38=UNCERTAINTY_MEASURE_WITH_UNIT(LENGTH_MEASURE(1.0E-006),#40,'','');
#40= (CONVERSION_BASED_UNIT('MILLIMETRE',#91)LENGTH_UNIT()NAMED_UNIT(#94));
#41= (NAMED_UNIT(#96)PLANE_ANGLE_UNIT()SI_UNIT($,.RADIAN.));
#42= (NAMED_UNIT(#96)SOLID_ANGLE_UNIT()SI_UNIT($,.STERADIAN.));
#44=PRESENTATION_STYLE_ASSIGNMENT((#102));
#45=ADVANCED_FACE('',(#103),#104,.T.);
#46=PRESENTATION_STYLE_ASSIGNMENT((#105));
#47=ADVANCED_FACE('',(#106),#107,.T.);
#48=PRESENTATION_STYLE_ASSIGNMENT((#108));
#49=ADVANCED_FACE('',(#109),#110,.T.);
#50=PRESENTATION_STYLE_ASSIGNMENT((#111));
#51=ADVANCED_FACE('',(#112),#113,.T.);
#52=PRESENTATION_STYLE_ASSIGNMENT((#114));
#53=ADVANCED_FACE('',(#115),#116,.T.);
#54=PRESENTATION_STYLE_ASSIGNMENT((#117));
#55=ADVANCED_FACE('',(#118),#119,.T.);
#56=PRESENTATION_STYLE_ASSIGNMENT((#120));
#57=ADVANCED_FACE('',(#121),#122,.T.);
#58=PRESENTATION_STYLE_ASSIGNMENT((#123));
#59=ADVANCED_FACE('',(#124),#125,.T.);
#60=PRESENTATION_STYLE_ASSIGNMENT((#126));
#61=ADVANCED_FACE('',(#127),#128,.T.);
#62=PRESENTATION_STYLE_ASSIGNMENT((#129));
#63=ADVANCED_FACE('',(#130),#131,.T.);
#64=PRESENTATION_STYLE_ASSIGNMENT((#132));
#65=ADVANCED_FACE('',(#133),#134,.T.);
#66=PRESENTATION_STYLE_ASSIGNMENT((#135));
#67=ADVANCED_FACE('',(#136),#137,.T.);
#68=PRESENTATION_STYLE_ASSIGNMENT((#138));
#69=ADVANCED_FACE('',(#139),#140,.T.);
#70=PRESENTATION_STYLE_ASSIGNMENT((#141));
#71=ADVANCED_FACE('',(#142),#143,.T.);
#72=PRESENTATION_STYLE_ASSIGNMENT((#144));
#73=ADVANCED_FACE('',(#145),#146,.T.);
#74=PRESENTATION_STYLE_ASSIGNMENT((#147));
#75=ADVANCED_FACE('',(#148),#149,.F.);
#76=PRESENTATION_STYLE_ASSIGNMENT((#150));
#77=ADVANCED_FACE('',(#151),#152,.T.);
#78=PRESENTATION_STYLE_ASSIGNMENT((#153));
#79=ADVANCED_FACE('',(#154),#155,.T.);
#80=PRESENTATION_STYLE_ASSIGNMENT((#156));
#81=ADVANCED_FACE('',(#157),#158,.T.);
#82=PRESENTATION_STYLE_ASSIGNMENT((#159));
#83=ADVANCED_FACE('',(#160),#161,.T.);
#84=PRESENTATION_STYLE_ASSIGNMENT((#162));
#85=MANIFOLD_SOLID_BREP('2023_07_24_09_02_09_0547',#163);
#86=PRODUCT('2023_07_24_09_02_09_0547','','PART--DESC',(#164));
#87=PRODUCT_DEFINITION('','NONE',#165,#2);
#88=AXIS2_PLACEMENT_3D('',#166,#167,#168);
#91=LENGTH_MEASURE_WITH_UNIT(LENGTH_MEASURE(1.0),#169);
#94=DIMENSIONAL_EXPONENTS(1.0,0.0,0.0,0.0,0.0,0.0,0.0);
#96=DIMENSIONAL_EXPONENTS(0.0,0.0,0.0,0.0,0.0,0.0,0.0);
#102=SURFACE_STYLE_USAGE(.BOTH.,#170);
#103=FACE_OUTER_BOUND('',#171,.T.);
#104=CYLINDRICAL_SURFACE('',#172,0.5);
#105=SURFACE_STYLE_USAGE(.BOTH.,#170);
#106=FACE_OUTER_BOUND('',#174,.T.);
#107=CYLINDRICAL_SURFACE('',#175,0.5);
#108=SURFACE_STYLE_USAGE(.BOTH.,#170);
#109=FACE_OUTER_BOUND('',#177,.T.);
#110=PLANE('',#178);
#111=SURFACE_STYLE_USAGE(.BOTH.,#170);
#112=FACE_OUTER_BOUND('',#180,.T.);
#113=PLANE('',#181);
#114=SURFACE_STYLE_USAGE(.BOTH.,#170);
#115=FACE_OUTER_BOUND('',#183,.T.);
#116=PLANE('',#184);
#117=SURFACE_STYLE_USAGE(.BOTH.,#170);
#118=FACE_OUTER_BOUND('',#186,.T.);
#119=PLANE('',#187);
#120=SURFACE_STYLE_USAGE(.BOTH.,#170);
#121=FACE_OUTER_BOUND('',#189,.T.);
#122=CYLINDRICAL_SURFACE('',#190,0.5);
#123=SURFACE_STYLE_USAGE(.BOTH.,#170);
#124=FACE_OUTER_BOUND('',#192,.T.);
#125=PLANE('',#193);
#126=SURFACE_STYLE_USAGE(.BOTH.,#170);
#127=FACE_OUTER_BOUND('',#195,.T.);
#128=PLANE('',#196);
#129=SURFACE_STYLE_USAGE(.BOTH.,#170);
#130=FACE_OUTER_BOUND('',#198,.T.);
#131=PLANE('',#199);
#132=SURFACE_STYLE_USAGE(.BOTH.,#170);
#133=FACE_OUTER_BOUND('',#201,.T.);
#134=CYLINDRICAL_SURFACE('',#202,0.5);
#135=SURFACE_STYLE_USAGE(.BOTH.,#170);
#136=FACE_OUTER_BOUND('',#204,.T.);
#137=PLANE('',#205);
#138=SURFACE_STYLE_USAGE(.BOTH.,#170);
#139=FACE_OUTER_BOUND('',#207,.T.);
#140=PLANE('',#208);
#141=SURFACE_STYLE_USAGE(.BOTH.,#170);
#142=FACE_OUTER_BOUND('',#210,.T.);
#143=PLANE('',#211);
#144=SURFACE_STYLE_USAGE(.BOTH.,#170);
#145=FACE_OUTER_BOUND('',#213,.T.);
#146=PLANE('',#214);
#147=SURFACE_STYLE_USAGE(.BOTH.,#170);
#148=FACE_OUTER_BOUND('',#216,.T.);
#149=PLANE('',#217);
#150=SURFACE_STYLE_USAGE(.BOTH.,#170);
#151=FACE_OUTER_BOUND('',#219,.T.);
#152=PLANE('',#220);
#153=SURFACE_STYLE_USAGE(.BOTH.,#170);
#154=FACE_OUTER_BOUND('',#222,.T.);
#155=PLANE('',#223);
#156=SURFACE_STYLE_USAGE(.BOTH.,#170);
#157=FACE_OUTER_BOUND('',#225,.T.);
#158=PLANE('',#226);
#159=SURFACE_STYLE_USAGE(.BOTH.,#170);
#160=FACE_OUTER_BOUND('',#228,.T.);
#161=PLANE('',#229);
#162=SURFACE_STYLE_USAGE(.BOTH.,#170);
#163=CLOSED_SHELL('',(#45,#47,#49,#51,#53,#55,#57,#59,#61,#63,#65,#67,#69,#71,#73,#75,#77,#79,#81,#83));
#164=PRODUCT_CONTEXT('',#31,'mechanical');
#165=PRODUCT_DEFINITION_FORMATION_WITH_SPECIFIED_SOURCE(' ','NONE',#86,.NOT_KNOWN.);
#166=CARTESIAN_POINT('',(0.0,0.0,0.0));
#167=DIRECTION('',(0.0,0.0,1.0));
#168=DIRECTION('',(1.0,0.0,0.0));
#169= (NAMED_UNIT(#94)LENGTH_UNIT()SI_UNIT(.MILLI.,.METRE.));
#170=SURFACE_SIDE_STYLE('',(#232));
#171=EDGE_LOOP('',(#233,#234,#235,#236));
#172=AXIS2_PLACEMENT_3D('',#237,#238,#239);
#174=EDGE_LOOP('',(#241,#242,#243,#244));
#175=AXIS2_PLACEMENT_3D('',#245,#246,#247);
#177=EDGE_LOOP('',(#249,#250,#251,#252));
#178=AXIS2_PLACEMENT_3D('',#253,#254,#255);
#180=EDGE_LOOP('',(#257,#258,#259,#260));
#181=AXIS2_PLACEMENT_3D('',#261,#262,#263);
#183=EDGE_LOOP('',(#265,#266,#267,#268));
#184=AXIS2_PLACEMENT_3D('',#269,#270,#271);
#186=EDGE_LOOP('',(#273,#274,#275,#276));
#187=AXIS2_PLACEMENT_3D('',#277,#278,#279);
#189=EDGE_LOOP('',(#281,#282,#283,#284));
#190=AXIS2_PLACEMENT_3D('',#285,#286,#287);
#192=EDGE_LOOP('',(#289,#290,#291,#292,#293,#294,#295,#296,#297,#298,#299,#300,#301,#302,#303,#304,#305,#306));
#193=AXIS2_PLACEMENT_3D('',#307,#308,#309);
#195=EDGE_LOOP('',(#311,#312,#313,#314));
#196=AXIS2_PLACEMENT_3D('',#315,#316,#317);
#198=EDGE_LOOP('',(#319,#320,#321,#322));
#199=AXIS2_PLACEMENT_3D('',#323,#324,#325);
#201=EDGE_LOOP('',(#327,#328,#329,#330));
#202=AXIS2_PLACEMENT_3D('',#331,#332,#333);
#204=EDGE_LOOP('',(#335,#336,#337,#338));
#205=AXIS2_PLACEMENT_3D('',#339,#340,#341);
#207=EDGE_LOOP('',(#343,#344,#345,#346));
#208=AXIS2_PLACEMENT_3D('',#347,#348,#349);
#210=EDGE_LOOP('',(#351,#352,#353,#354));
#211=AXIS2_PLACEMENT_3D('',#355,#356,#357);
#213=EDGE_LOOP('',(#359,#360,#361,#362));
#214=AXIS2_PLACEMENT_3D('',#363,#364,#365);
#216=EDGE_LOOP('',(#367,#368,#369,#370,#371,#372,#373,#374,#375,#376,#377,#378,#379,#380,#381,#382,#383,#384));
#217=AXIS2_PLACEMENT_3D('',#385,#386,#387);
#219=EDGE_LOOP('',(#389,#390,#391,#392));
#220=AXIS2_PLACEMENT_3D('',#393,#394,#395);
#222=EDGE_LOOP('',(#397,#398,#399,#400));
#223=AXIS2_PLACEMENT_3D('',#401,#402,#403);
#225=EDGE_LOOP('',(#405,#406,#407,#408));
#226=AXIS2_PLACEMENT_3D('',#409,#410,#411);
#228=EDGE_LOOP('',(#413,#414,#415,#416));
#229=AXIS2_PLACEMENT_3D('',#417,#418,#419);
#232=SURFACE_STYLE_FILL_AREA(#421);
#233=ORIENTED_EDGE('',*,*,#422,.F.);
#234=ORIENTED_EDGE('',*,*,#423,.T.);
#235=ORIENTED_EDGE('',*,*,#424,.T.);
#236=ORIENTED_EDGE('',*,*,#425,.F.);
#237=CARTESIAN_POINT('',(12.0,2.42499999999995,0.5));
#238=DIRECTION('',(1.0,0.0,0.0));
#239=DIRECTION('',(0.0,-1.0,0.0));
#241=ORIENTED_EDGE('',*,*,#427,.F.);
#242=ORIENTED_EDGE('',*,*,#428,.F.);
#243=ORIENTED_EDGE('',*,*,#429,.F.);
#244=ORIENTED_EDGE('',*,*,#430,.T.);
#245=CARTESIAN_POINT('',(12.0,8.07499999999982,0.5));
#246=DIRECTION('',(1.0,0.0,0.0));
#247=DIRECTION('',(0.0,-1.0,0.0));
#249=ORIENTED_EDGE('',*,*,#432,.T.);
#250=ORIENTED_EDGE('',*,*,#433,.T.);
#251=ORIENTED_EDGE('',*,*,#434,.F.);
#252=ORIENTED_EDGE('',*,*,#435,.T.);
#253=CARTESIAN_POINT('',(0.0,3.31064507456995,3.09999999999997));
#254=DIRECTION('',(0.0,0.0,-1.0));
#255=DIRECTION('',(-1.0,0.0,0.0));
#257=ORIENTED_EDGE('',*,*,#437,.T.);
#258=ORIENTED_EDGE('',*,*,#438,.T.);
#259=ORIENTED_EDGE('',*,*,#439,.F.);
#260=ORIENTED_EDGE('',*,*,#440,.T.);
#261=CARTESIAN_POINT('',(0.0,0.0,4.19999999999999));
#262=DIRECTION('',(0.0,-0.0,1.0));
#263=DIRECTION('',(0.0,1.0,0.0));
#265=ORIENTED_EDGE('',*,*,#442,.T.);
#266=ORIENTED_EDGE('',*,*,#443,.F.);
#267=ORIENTED_EDGE('',*,*,#444,.F.);
#268=ORIENTED_EDGE('',*,*,#445,.F.);
#269=CARTESIAN_POINT('',(12.0,6.50438136680987,2.95176380902097));
#270=DIRECTION('',(0.0,-0.965925826288803,-0.258819045103513));
#271=DIRECTION('',(0.0,-0.258819045103513,0.965925826288803));
#273=ORIENTED_EDGE('',*,*,#447,.F.);
#274=ORIENTED_EDGE('',*,*,#429,.T.);
#275=ORIENTED_EDGE('',*,*,#448,.T.);
#276=ORIENTED_EDGE('',*,*,#449,.F.);
#277=CARTESIAN_POINT('',(12.0,8.07499999999982,1.0));
#278=DIRECTION('',(0.0,-0.0,1.0));
#279=DIRECTION('',(0.0,1.0,0.0));
#281=ORIENTED_EDGE('',*,*,#427,.T.);
#282=ORIENTED_EDGE('',*,*,#451,.T.);
#283=ORIENTED_EDGE('',*,*,#452,.T.);
#284=ORIENTED_EDGE('',*,*,#453,.F.);
#285=CARTESIAN_POINT('',(12.0,8.07499999999982,0.5));
#286=DIRECTION('',(1.0,0.0,0.0));
#287=DIRECTION('',(0.0,-1.0,0.0));
#289=ORIENTED_EDGE('',*,*,#455,.T.);
#290=ORIENTED_EDGE('',*,*,#456,.T.);
#291=ORIENTED_EDGE('',*,*,#457,.T.);
#292=ORIENTED_EDGE('',*,*,#458,.T.);
#293=ORIENTED_EDGE('',*,*,#425,.T.);
#294=ORIENTED_EDGE('',*,*,#459,.F.);
#295=ORIENTED_EDGE('',*,*,#460,.F.);
#296=ORIENTED_EDGE('',*,*,#434,.T.);
#297=ORIENTED_EDGE('',*,*,#461,.T.);
#298=ORIENTED_EDGE('',*,*,#439,.T.);
#299=ORIENTED_EDGE('',*,*,#462,.T.);
#300=ORIENTED_EDGE('',*,*,#463,.T.);
#301=ORIENTED_EDGE('',*,*,#464,.T.);
#302=ORIENTED_EDGE('',*,*,#448,.F.);
#303=ORIENTED_EDGE('',*,*,#428,.T.);
#304=ORIENTED_EDGE('',*,*,#453,.T.);
#305=ORIENTED_EDGE('',*,*,#465,.T.);
#306=ORIENTED_EDGE('',*,*,#444,.T.);
#307=CARTESIAN_POINT('',(0.0,-174.65430648998,123.36934601221));
#308=DIRECTION('',(-1.0,0.0,0.0));
#309=DIRECTION('',(0.0,0.0,-1.0));
#311=ORIENTED_EDGE('',*,*,#467,.T.);
#312=ORIENTED_EDGE('',*,*,#468,.T.);
#313=ORIENTED_EDGE('',*,*,#457,.F.);
#314=ORIENTED_EDGE('',*,*,#469,.T.);
#315=CARTESIAN_POINT('',(12.0,2.42499999999995,0.0));
#316=DIRECTION('',(0.0,0.0,-1.0));
#317=DIRECTION('',(-1.0,0.0,0.0));
#319=ORIENTED_EDGE('',*,*,#471,.T.);
#320=ORIENTED_EDGE('',*,*,#469,.F.);
#321=ORIENTED_EDGE('',*,*,#456,.F.);
#322=ORIENTED_EDGE('',*,*,#472,.F.);
#323=CARTESIAN_POINT('',(12.0,3.32385520729986,0.444708572937998));
#324=DIRECTION('',(0.0,0.965925826288677,-0.258819045103983));
#325=DIRECTION('',(-1.0,0.0,0.0));
#327=ORIENTED_EDGE('',*,*,#422,.T.);
#328=ORIENTED_EDGE('',*,*,#458,.F.);
#329=ORIENTED_EDGE('',*,*,#468,.F.);
#330=ORIENTED_EDGE('',*,*,#474,.T.);
#331=CARTESIAN_POINT('',(12.0,2.42499999999995,0.5));
#332=DIRECTION('',(1.0,0.0,0.0));
#333=DIRECTION('',(0.0,-1.0,0.0));
#335=ORIENTED_EDGE('',*,*,#476,.F.);
#336=ORIENTED_EDGE('',*,*,#477,.F.);
#337=ORIENTED_EDGE('',*,*,#459,.T.);
#338=ORIENTED_EDGE('',*,*,#424,.F.);
#339=CARTESIAN_POINT('',(12.0,2.51775367406981,1.0));
#340=DIRECTION('',(0.0,-0.0,1.0));
#341=DIRECTION('',(0.0,1.0,0.0));
#343=ORIENTED_EDGE('',*,*,#479,.F.);
#344=ORIENTED_EDGE('',*,*,#435,.F.);
#345=ORIENTED_EDGE('',*,*,#460,.T.);
#346=ORIENTED_EDGE('',*,*,#477,.T.);
#347=CARTESIAN_POINT('',(12.0,3.24318516526,2.84823619098097));
#348=DIRECTION('',(0.0,-0.965925826288382,0.258819045105081));
#349=DIRECTION('',(1.0,0.0,0.0));
#351=ORIENTED_EDGE('',*,*,#481,.T.);
#352=ORIENTED_EDGE('',*,*,#440,.F.);
#353=ORIENTED_EDGE('',*,*,#461,.F.);
#354=ORIENTED_EDGE('',*,*,#433,.F.);
#355=CARTESIAN_POINT('',(12.0,0.0,4.0));
#356=DIRECTION('',(0.0,-1.0,0.0));
#357=DIRECTION('',(1.0,0.0,0.0));
#359=ORIENTED_EDGE('',*,*,#483,.T.);
#360=ORIENTED_EDGE('',*,*,#445,.T.);
#361=ORIENTED_EDGE('',*,*,#465,.F.);
#362=ORIENTED_EDGE('',*,*,#452,.F.);
#363=CARTESIAN_POINT('',(12.0,7.75570028846983,0.0));
#364=DIRECTION('',(0.0,0.0,-1.0));
#365=DIRECTION('',(-1.0,0.0,0.0));
#367=ORIENTED_EDGE('',*,*,#442,.F.);
#368=ORIENTED_EDGE('',*,*,#483,.F.);
#369=ORIENTED_EDGE('',*,*,#451,.F.);
#370=ORIENTED_EDGE('',*,*,#430,.F.);
#371=ORIENTED_EDGE('',*,*,#447,.T.);
#372=ORIENTED_EDGE('',*,*,#485,.F.);
#373=ORIENTED_EDGE('',*,*,#486,.F.);
#374=ORIENTED_EDGE('',*,*,#487,.F.);
#375=ORIENTED_EDGE('',*,*,#437,.F.);
#376=ORIENTED_EDGE('',*,*,#481,.F.);
#377=ORIENTED_EDGE('',*,*,#432,.F.);
#378=ORIENTED_EDGE('',*,*,#479,.T.);
#379=ORIENTED_EDGE('',*,*,#476,.T.);
#380=ORIENTED_EDGE('',*,*,#423,.F.);
#381=ORIENTED_EDGE('',*,*,#474,.F.);
#382=ORIENTED_EDGE('',*,*,#467,.F.);
#383=ORIENTED_EDGE('',*,*,#471,.F.);
#384=ORIENTED_EDGE('',*,*,#488,.F.);
#385=CARTESIAN_POINT('',(4.15,-174.65430648998,123.36934601221));
#386=DIRECTION('',(-1.0,0.0,0.0));
#387=DIRECTION('',(0.0,0.0,-1.0));
#389=ORIENTED_EDGE('',*,*,#486,.T.);
#390=ORIENTED_EDGE('',*,*,#490,.T.);
#391=ORIENTED_EDGE('',*,*,#463,.F.);
#392=ORIENTED_EDGE('',*,*,#491,.T.);
#393=CARTESIAN_POINT('',(12.0,7.44999999999982,3.09999999999997));
#394=DIRECTION('',(0.0,0.0,-1.0));
#395=DIRECTION('',(-1.0,0.0,0.0));
#397=ORIENTED_EDGE('',*,*,#485,.T.);
#398=ORIENTED_EDGE('',*,*,#449,.T.);
#399=ORIENTED_EDGE('',*,*,#464,.F.);
#400=ORIENTED_EDGE('',*,*,#490,.F.);
#401=CARTESIAN_POINT('',(12.0,7.69246857805001,1.22235428646997));
#402=DIRECTION('',(0.0,0.965925826288454,0.258819045104813));
#403=DIRECTION('',(-1.0,0.0,0.0));
#405=ORIENTED_EDGE('',*,*,#488,.T.);
#406=ORIENTED_EDGE('',*,*,#472,.T.);
#407=ORIENTED_EDGE('',*,*,#455,.F.);
#408=ORIENTED_EDGE('',*,*,#443,.T.);
#409=CARTESIAN_POINT('',(12.0,4.18880379845996,3.09999999999997));
#410=DIRECTION('',(0.0,0.0,-1.0));
#411=DIRECTION('',(-1.0,0.0,0.0));
#413=ORIENTED_EDGE('',*,*,#487,.T.);
#414=ORIENTED_EDGE('',*,*,#491,.F.);
#415=ORIENTED_EDGE('',*,*,#462,.F.);
#416=ORIENTED_EDGE('',*,*,#438,.F.);
#417=CARTESIAN_POINT('',(12.0,10.5,3.29999999999995));
#418=DIRECTION('',(0.0,1.0,0.0));
#419=DIRECTION('',(0.0,0.0,1.0));
#421=FILL_AREA_STYLE('',(#496));
#422=EDGE_CURVE('',#497,#498,#499,.T.);
#423=EDGE_CURVE('',#497,#500,#501,.T.);
#424=EDGE_CURVE('',#500,#502,#503,.T.);
#425=EDGE_CURVE('',#498,#502,#504,.T.);
#427=EDGE_CURVE('',#506,#507,#508,.T.);
#428=EDGE_CURVE('',#509,#506,#510,.T.);
#429=EDGE_CURVE('',#511,#509,#512,.T.);
#430=EDGE_CURVE('',#511,#507,#513,.T.);
#432=EDGE_CURVE('',#515,#516,#517,.T.);
#433=EDGE_CURVE('',#516,#518,#519,.T.);
#434=EDGE_CURVE('',#520,#518,#521,.T.);
#435=EDGE_CURVE('',#520,#515,#522,.T.);
#437=EDGE_CURVE('',#524,#525,#526,.T.);
#438=EDGE_CURVE('',#525,#527,#528,.T.);
#439=EDGE_CURVE('',#529,#527,#530,.T.);
#440=EDGE_CURVE('',#529,#524,#531,.T.);
#442=EDGE_CURVE('',#533,#534,#535,.T.);
#443=EDGE_CURVE('',#536,#534,#537,.T.);
#444=EDGE_CURVE('',#538,#536,#539,.T.);
#445=EDGE_CURVE('',#533,#538,#540,.T.);
#447=EDGE_CURVE('',#511,#542,#543,.T.);
#448=EDGE_CURVE('',#509,#544,#545,.T.);
#449=EDGE_CURVE('',#542,#544,#546,.T.);
#451=EDGE_CURVE('',#507,#548,#549,.T.);
#452=EDGE_CURVE('',#548,#550,#551,.T.);
#453=EDGE_CURVE('',#506,#550,#552,.T.);
#455=EDGE_CURVE('',#536,#554,#555,.T.);
#456=EDGE_CURVE('',#554,#556,#557,.T.);
#457=EDGE_CURVE('',#556,#558,#559,.T.);
#458=EDGE_CURVE('',#558,#498,#560,.T.);
#459=EDGE_CURVE('',#561,#502,#562,.T.);
#460=EDGE_CURVE('',#520,#561,#563,.T.);
#461=EDGE_CURVE('',#518,#529,#564,.T.);
#462=EDGE_CURVE('',#527,#565,#566,.T.);
#463=EDGE_CURVE('',#565,#567,#568,.T.);
#464=EDGE_CURVE('',#567,#544,#569,.T.);
#465=EDGE_CURVE('',#550,#538,#570,.T.);
#467=EDGE_CURVE('',#572,#573,#574,.T.);
#468=EDGE_CURVE('',#573,#558,#575,.T.);
#469=EDGE_CURVE('',#556,#572,#576,.T.);
#471=EDGE_CURVE('',#578,#572,#579,.T.);
#472=EDGE_CURVE('',#578,#554,#580,.T.);
#474=EDGE_CURVE('',#573,#497,#582,.T.);
#476=EDGE_CURVE('',#584,#500,#585,.T.);
#477=EDGE_CURVE('',#561,#584,#586,.T.);
#479=EDGE_CURVE('',#515,#584,#588,.T.);
#481=EDGE_CURVE('',#516,#524,#590,.T.);
#483=EDGE_CURVE('',#548,#533,#592,.T.);
#485=EDGE_CURVE('',#594,#542,#595,.T.);
#486=EDGE_CURVE('',#596,#594,#597,.T.);
#487=EDGE_CURVE('',#525,#596,#598,.T.);
#488=EDGE_CURVE('',#534,#578,#599,.T.);
#490=EDGE_CURVE('',#594,#567,#601,.T.);
#491=EDGE_CURVE('',#565,#596,#602,.T.);
#496=FILL_AREA_STYLE_COLOUR('',#607);
#497=VERTEX_POINT('',#608);
#498=VERTEX_POINT('',#609);
#499=LINE('',#610,#611);
#500=VERTEX_POINT('',#612);
#501=CIRCLE('',#613,0.500000000000199);
#502=VERTEX_POINT('',#614);
#503=LINE('',#615,#616);
#504=CIRCLE('',#617,0.500000000000199);
#506=VERTEX_POINT('',#619);
#507=VERTEX_POINT('',#620);
#508=LINE('',#621,#622);
#509=VERTEX_POINT('',#623);
#510=CIRCLE('',#624,0.5);
#511=VERTEX_POINT('',#625);
#512=LINE('',#626,#627);
#513=CIRCLE('',#628,0.5);
#515=VERTEX_POINT('',#630);
#516=VERTEX_POINT('',#631);
#517=LINE('',#632,#633);
#518=VERTEX_POINT('',#634);
#519=LINE('',#635,#636);
#520=VERTEX_POINT('',#637);
#521=LINE('',#638,#639);
#522=LINE('',#640,#641);
#524=VERTEX_POINT('',#643);
#525=VERTEX_POINT('',#644);
#526=LINE('',#645,#646);
#527=VERTEX_POINT('',#647);
#528=LINE('',#648,#649);
#529=VERTEX_POINT('',#650);
#530=LINE('',#651,#652);
#531=LINE('',#653,#654);
#533=VERTEX_POINT('',#656);
#534=VERTEX_POINT('',#657);
#535=LINE('',#658,#659);
#536=VERTEX_POINT('',#660);
#537=LINE('',#661,#662);
#538=VERTEX_POINT('',#663);
#539=LINE('',#664,#665);
#540=LINE('',#666,#667);
#542=VERTEX_POINT('',#669);
#543=LINE('',#670,#671);
#544=VERTEX_POINT('',#672);
#545=LINE('',#673,#674);
#546=LINE('',#675,#676);
#548=VERTEX_POINT('',#678);
#549=CIRCLE('',#679,0.5);
#550=VERTEX_POINT('',#680);
#551=LINE('',#681,#682);
#552=CIRCLE('',#683,0.5);
#554=VERTEX_POINT('',#685);
#555=LINE('',#686,#687);
#556=VERTEX_POINT('',#688);
#557=LINE('',#689,#690);
#558=VERTEX_POINT('',#691);
#559=LINE('',#692,#693);
#560=CIRCLE('',#694,0.500000000000199);
#561=VERTEX_POINT('',#695);
#562=LINE('',#696,#697);
#563=LINE('',#698,#699);
#564=LINE('',#700,#701);
#565=VERTEX_POINT('',#702);
#566=LINE('',#703,#704);
#567=VERTEX_POINT('',#705);
#568=LINE('',#706,#707);
#569=LINE('',#708,#709);
#570=LINE('',#710,#711);
#572=VERTEX_POINT('',#713);
#573=VERTEX_POINT('',#714);
#574=LINE('',#715,#716);
#575=LINE('',#717,#718);
#576=LINE('',#719,#720);
#578=VERTEX_POINT('',#722);
#579=LINE('',#723,#724);
#580=LINE('',#725,#726);
#582=CIRCLE('',#728,0.500000000000199);
#584=VERTEX_POINT('',#730);
#585=LINE('',#731,#732);
#586=LINE('',#733,#734);
#588=LINE('',#736,#737);
#590=LINE('',#739,#740);
#592=LINE('',#742,#743);
#594=VERTEX_POINT('',#745);
#595=LINE('',#746,#747);
#596=VERTEX_POINT('',#748);
#597=LINE('',#749,#750);
#598=LINE('',#751,#752);
#599=LINE('',#753,#754);
#601=LINE('',#756,#757);
#602=LINE('',#758,#759);
#607=COLOUR_RGB('',0.980392217636108,1.0,1.0);
#608=CARTESIAN_POINT('',(4.15,1.92499999999976,0.5));
#609=CARTESIAN_POINT('',(0.0,1.92499999999976,0.5));
#610=CARTESIAN_POINT('',(2.075,1.92499999999995,0.5));
#611=VECTOR('',#764,1.0);
#612=CARTESIAN_POINT('',(4.15,2.42499999999995,1.0));
#613=AXIS2_PLACEMENT_3D('',#765,#766,#767);
#614=CARTESIAN_POINT('',(0.0,2.42499999999995,1.0));
#615=CARTESIAN_POINT('',(12.0,2.42499999999995,1.0));
#616=VECTOR('',#768,1.0);
#617=AXIS2_PLACEMENT_3D('',#769,#770,#771);
#619=CARTESIAN_POINT('',(0.0,8.57499999999982,0.5));
#620=CARTESIAN_POINT('',(4.15,8.57499999999982,0.5));
#621=CARTESIAN_POINT('',(2.075,8.57499999999982,0.5));
#622=VECTOR('',#772,1.0);
#623=CARTESIAN_POINT('',(0.0,8.07499999999982,1.0));
#624=AXIS2_PLACEMENT_3D('',#773,#774,#775);
#625=CARTESIAN_POINT('',(4.15,8.07499999999982,1.0));
#626=CARTESIAN_POINT('',(12.0,8.07499999999982,1.0));
#627=VECTOR('',#776,1.0);
#628=AXIS2_PLACEMENT_3D('',#777,#778,#779);
#630=CARTESIAN_POINT('',(4.15,3.31064507456995,3.09999999999997));
#631=CARTESIAN_POINT('',(4.15,0.0,3.09999999999997));
#632=CARTESIAN_POINT('',(4.15,-174.65430648998,3.09999999999997));
#633=VECTOR('',#780,1.0);
#634=CARTESIAN_POINT('',(0.0,0.0,3.09999999999997));
#635=CARTESIAN_POINT('',(12.0,0.0,3.09999999999997));
#636=VECTOR('',#781,1.0);
#637=CARTESIAN_POINT('',(0.0,3.31064507456995,3.09999999999997));
#638=CARTESIAN_POINT('',(0.0,-174.65430648998,3.09999999999997));
#639=VECTOR('',#782,1.0);
#640=CARTESIAN_POINT('',(12.0,3.31064507456995,3.09999999999997));
#641=VECTOR('',#783,1.0);
#643=CARTESIAN_POINT('',(4.15,0.0,4.19999999999999));
#644=CARTESIAN_POINT('',(4.15,10.5,4.19999999999999));
#645=CARTESIAN_POINT('',(4.15,-174.65430648998,4.19999999999999));
#646=VECTOR('',#784,1.0);
#647=CARTESIAN_POINT('',(0.0,10.5,4.19999999999999));
#648=CARTESIAN_POINT('',(12.0,10.5,4.19999999999999));
#649=VECTOR('',#785,1.0);
#650=CARTESIAN_POINT('',(0.0,0.0,4.19999999999999));
#651=CARTESIAN_POINT('',(0.0,-174.65430648998,4.19999999999999));
#652=VECTOR('',#786,1.0);
#653=CARTESIAN_POINT('',(12.0,0.0,4.19999999999999));
#654=VECTOR('',#787,1.0);
#656=CARTESIAN_POINT('',(4.15,7.29530409568997,0.0));
#657=CARTESIAN_POINT('',(4.15,6.46466159914985,3.09999999999997));
#658=CARTESIAN_POINT('',(4.15,-25.7614125391801,123.36934601221));
#659=VECTOR('',#788,1.0);
#660=CARTESIAN_POINT('',(0.0,6.46466159914985,3.09999999999997));
#661=CARTESIAN_POINT('',(12.0,6.46466159914985,3.09999999999997));
#662=VECTOR('',#789,1.0);
#663=CARTESIAN_POINT('',(0.0,7.29530409568997,0.0));
#664=CARTESIAN_POINT('',(0.0,-25.7614125391801,123.36934601221));
#665=VECTOR('',#790,1.0);
#666=CARTESIAN_POINT('',(12.0,7.29530409568997,0.0));
#667=VECTOR('',#791,1.0);
#669=CARTESIAN_POINT('',(4.15,7.75204822953992,1.0));
#670=CARTESIAN_POINT('',(4.15,-174.65430648998,1.0));
#671=VECTOR('',#792,1.0);
#672=CARTESIAN_POINT('',(0.0,7.75204822953992,1.0));
#673=CARTESIAN_POINT('',(0.0,-174.65430648998,1.0));
#674=VECTOR('',#793,1.0);
#675=CARTESIAN_POINT('',(12.0,7.75204822953992,1.0));
#676=VECTOR('',#794,1.0);
#678=CARTESIAN_POINT('',(4.15,8.07499999999982,0.0));
#679=AXIS2_PLACEMENT_3D('',#795,#796,#797);
#680=CARTESIAN_POINT('',(0.0,8.07499999999982,0.0));
#681=CARTESIAN_POINT('',(12.0,8.07499999999982,0.0));
#682=VECTOR('',#798,1.0);
#683=AXIS2_PLACEMENT_3D('',#799,#800,#801);
#685=CARTESIAN_POINT('',(0.0,4.03533840085993,3.09999999999997));
#686=CARTESIAN_POINT('',(0.0,-174.65430648998,3.09999999999997));
#687=VECTOR('',#802,1.0);
#688=CARTESIAN_POINT('',(0.0,3.20469590431981,0.0));
#689=CARTESIAN_POINT('',(0.0,36.2614125392499,123.36934601221));
#690=VECTOR('',#803,1.0);
#691=CARTESIAN_POINT('',(0.0,2.42499999999995,0.0));
#692=CARTESIAN_POINT('',(0.0,-174.65430648998,0.0));
#693=VECTOR('',#804,1.0);
#694=AXIS2_PLACEMENT_3D('',#805,#806,#807);
#695=CARTESIAN_POINT('',(0.0,2.74795177045985,1.0));
#696=CARTESIAN_POINT('',(0.0,-174.65430648998,1.0));
#697=VECTOR('',#808,1.0);
#698=CARTESIAN_POINT('',(-1.77635683940025E-015,35.5367192131,123.36934601221));
#699=VECTOR('',#809,1.0);
#700=CARTESIAN_POINT('',(0.0,0.0,123.36934601221));
#701=VECTOR('',#810,1.0);
#702=CARTESIAN_POINT('',(0.0,10.5,3.09999999999997));
#703=CARTESIAN_POINT('',(0.0,10.5,123.36934601221));
#704=VECTOR('',#811,1.0);
#705=CARTESIAN_POINT('',(0.0,7.18935492542983,3.09999999999997));
#706=CARTESIAN_POINT('',(0.0,-174.65430648998,3.09999999999997));
#707=VECTOR('',#812,1.0);
#708=CARTESIAN_POINT('',(0.0,-25.03671921306,123.36934601221));
#709=VECTOR('',#813,1.0);
#710=CARTESIAN_POINT('',(0.0,-174.65430648998,0.0));
#711=VECTOR('',#814,1.0);
#713=CARTESIAN_POINT('',(4.15,3.20469590431981,0.0));
#714=CARTESIAN_POINT('',(4.15,2.42499999999995,0.0));
#715=CARTESIAN_POINT('',(4.15,-174.65430648998,0.0));
#716=VECTOR('',#815,1.0);
#717=CARTESIAN_POINT('',(12.0,2.42499999999995,0.0));
#718=VECTOR('',#816,1.0);
#719=CARTESIAN_POINT('',(12.0,3.20469590431981,0.0));
#720=VECTOR('',#817,1.0);
#722=CARTESIAN_POINT('',(4.15,4.03533840085993,3.09999999999997));
#723=CARTESIAN_POINT('',(4.15,36.2614125392499,123.36934601221));
#724=VECTOR('',#818,1.0);
#725=CARTESIAN_POINT('',(12.0,4.03533840085993,3.09999999999997));
#726=VECTOR('',#819,1.0);
#728=AXIS2_PLACEMENT_3D('',#820,#821,#822);
#730=CARTESIAN_POINT('',(4.15,2.74795177045985,1.0));
#731=CARTESIAN_POINT('',(4.15,-174.65430648998,1.0));
#732=VECTOR('',#823,1.0);
#733=CARTESIAN_POINT('',(12.0,2.74795177045985,1.0));
#734=VECTOR('',#824,1.0);
#736=CARTESIAN_POINT('',(4.15,35.5367192131,123.36934601221));
#737=VECTOR('',#825,1.0);
#739=CARTESIAN_POINT('',(4.15,0.0,123.36934601221));
#740=VECTOR('',#826,1.0);
#742=CARTESIAN_POINT('',(4.15,-174.65430648998,0.0));
#743=VECTOR('',#827,1.0);
#745=CARTESIAN_POINT('',(4.15,7.18935492542983,3.09999999999997));
#746=CARTESIAN_POINT('',(4.15,-25.03671921306,123.36934601221));
#747=VECTOR('',#828,1.0);
#748=CARTESIAN_POINT('',(4.15,10.5,3.09999999999997));
#749=CARTESIAN_POINT('',(4.15,-174.65430648998,3.09999999999997));
#750=VECTOR('',#829,1.0);
#751=CARTESIAN_POINT('',(4.15,10.5,123.36934601221));
#752=VECTOR('',#830,1.0);
#753=CARTESIAN_POINT('',(4.15,-174.65430648998,3.09999999999997));
#754=VECTOR('',#831,1.0);
#756=CARTESIAN_POINT('',(12.0,7.18935492542983,3.09999999999997));
#757=VECTOR('',#832,1.0);
#758=CARTESIAN_POINT('',(12.0,10.5,3.09999999999997));
#759=VECTOR('',#833,1.0);
#764=DIRECTION('',(-1.0,-0.0,-0.0));
#765=CARTESIAN_POINT('',(4.15,2.42499999999995,0.5));
#766=DIRECTION('',(-1.0,0.0,0.0));
#767=DIRECTION('',(0.0,-1.0,0.0));
#768=DIRECTION('',(-1.0,0.0,0.0));
#769=CARTESIAN_POINT('',(0.0,2.42499999999995,0.5));
#770=DIRECTION('',(-1.0,0.0,0.0));
#771=DIRECTION('',(0.0,-1.0,0.0));
#772=DIRECTION('',(1.0,0.0,0.0));
#773=CARTESIAN_POINT('',(0.0,8.07499999999982,0.5));
#774=DIRECTION('',(-1.0,0.0,0.0));
#775=DIRECTION('',(0.0,-1.0,0.0));
#776=DIRECTION('',(-1.0,0.0,0.0));
#777=CARTESIAN_POINT('',(4.15,8.07499999999982,0.5));
#778=DIRECTION('',(-1.0,0.0,0.0));
#779=DIRECTION('',(0.0,-1.0,0.0));
#780=DIRECTION('',(0.0,-1.0,0.0));
#781=DIRECTION('',(-1.0,0.0,0.0));
#782=DIRECTION('',(0.0,-1.0,0.0));
#783=DIRECTION('',(1.0,0.0,0.0));
#784=DIRECTION('',(0.0,1.0,0.0));
#785=DIRECTION('',(-1.0,0.0,0.0));
#786=DIRECTION('',(0.0,1.0,0.0));
#787=DIRECTION('',(1.0,0.0,0.0));
#788=DIRECTION('',(0.0,-0.258819045103513,0.965925826288803));
#789=DIRECTION('',(1.0,0.0,0.0));
#790=DIRECTION('',(0.0,-0.258819045103513,0.965925826288803));
#791=DIRECTION('',(-1.0,0.0,0.0));
#792=DIRECTION('',(0.0,-1.0,0.0));
#793=DIRECTION('',(0.0,-1.0,0.0));
#794=DIRECTION('',(-1.0,0.0,0.0));
#795=CARTESIAN_POINT('',(4.15,8.07499999999982,0.5));
#796=DIRECTION('',(-1.0,0.0,0.0));
#797=DIRECTION('',(0.0,-1.0,0.0));
#798=DIRECTION('',(-1.0,0.0,0.0));
#799=CARTESIAN_POINT('',(0.0,8.07499999999982,0.5));
#800=DIRECTION('',(-1.0,0.0,0.0));
#801=DIRECTION('',(0.0,-1.0,0.0));
#802=DIRECTION('',(0.0,-1.0,0.0));
#803=DIRECTION('',(0.0,-0.258819045103983,-0.965925826288677));
#804=DIRECTION('',(0.0,-1.0,0.0));
#805=CARTESIAN_POINT('',(0.0,2.42499999999995,0.5));
#806=DIRECTION('',(-1.0,0.0,0.0));
#807=DIRECTION('',(0.0,-1.0,0.0));
#808=DIRECTION('',(0.0,-1.0,0.0));
#809=DIRECTION('',(0.0,-0.258819045105081,-0.965925826288382));
#810=DIRECTION('',(0.0,0.0,1.0));
#811=DIRECTION('',(0.0,0.0,-1.0));
#812=DIRECTION('',(0.0,-1.0,0.0));
#813=DIRECTION('',(0.0,0.258819045104813,-0.965925826288454));
#814=DIRECTION('',(0.0,-1.0,0.0));
#815=DIRECTION('',(0.0,-1.0,0.0));
#816=DIRECTION('',(-1.0,0.0,0.0));
#817=DIRECTION('',(1.0,0.0,0.0));
#818=DIRECTION('',(0.0,-0.258819045103983,-0.965925826288677));
#819=DIRECTION('',(-1.0,0.0,0.0));
#820=CARTESIAN_POINT('',(4.15,2.42499999999995,0.5));
#821=DIRECTION('',(-1.0,0.0,0.0));
#822=DIRECTION('',(0.0,-1.0,0.0));
#823=DIRECTION('',(0.0,-1.0,0.0));
#824=DIRECTION('',(1.0,0.0,0.0));
#825=DIRECTION('',(0.0,-0.258819045105081,-0.965925826288382));
#826=DIRECTION('',(0.0,0.0,1.0));
#827=DIRECTION('',(0.0,-1.0,0.0));
#828=DIRECTION('',(0.0,0.258819045104813,-0.965925826288454));
#829=DIRECTION('',(0.0,-1.0,0.0));
#830=DIRECTION('',(0.0,0.0,-1.0));
#831=DIRECTION('',(0.0,-1.0,0.0));
#832=DIRECTION('',(-1.0,0.0,0.0));
#833=DIRECTION('',(1.0,0.0,0.0));
ENDSEC;
END-ISO-10303-21;

