ISO-10303-21;
HEADER;
FILE_DESCRIPTION(('STEP AP214'),'1');
FILE_NAME('cctmp_6E851A4F-1492-43D8-A801-37453891CC60_2023_07_22_16_03_20_0044..stp','2023-07-22T14:03:20',('SIEMENS A&D'),('CADClick - www.CADClick.com'),'Spatial InterOp 3D postprocessed',' ','unknown authorization');
FILE_SCHEMA(('AUTOMOTIVE_DESIGN'));
ENDSEC;
DATA;
#1=MECHANICAL_DESIGN_GEOMETRIC_PRESENTATION_REPRESENTATION(' ',(#10,#11,#12,#13,#14,#15,#16),#6);
#2=PRODUCT_DEFINITION_CONTEXT('',#17,'design');
#3=APPLICATION_PROTOCOL_DEFINITION('INTERNATIONAL STANDARD','automotive_design',1994,#17);
#4=PRODUCT_CATEGORY_RELATIONSHIP('NONE','NONE',#18,#19);
#5=SHAPE_DEFINITION_REPRESENTATION(#20,#21);
#6= (GEOMETRIC_REPRESENTATION_CONTEXT(3)GLOBAL_UNCERTAINTY_ASSIGNED_CONTEXT((#24))GLOBAL_UNIT_ASSIGNED_CONTEXT((#26,#27,#28))REPRESENTATION_CONTEXT('NONE','WORKSPACE'));
#10=STYLED_ITEM('',(#30),#31);
#11=STYLED_ITEM('',(#32),#33);
#12=STYLED_ITEM('',(#34),#35);
#13=STYLED_ITEM('',(#36),#37);
#14=STYLED_ITEM('',(#38),#39);
#15=STYLED_ITEM('',(#40),#41);
#16=STYLED_ITEM('',(#42),#43);
#17=APPLICATION_CONTEXT(' ');
#18=PRODUCT_CATEGORY('part','NONE');
#19=PRODUCT_RELATED_PRODUCT_CATEGORY('detail',' ',(#44));
#20=PRODUCT_DEFINITION_SHAPE('NONE','NONE',#45);
#21=ADVANCED_BREP_SHAPE_REPRESENTATION('2023_07_22_16_03_20_0040',(#43,#46),#6);
#24=UNCERTAINTY_MEASURE_WITH_UNIT(LENGTH_MEASURE(1.0E-006),#26,'','');
#26= (CONVERSION_BASED_UNIT('MILLIMETRE',#49)LENGTH_UNIT()NAMED_UNIT(#52));
#27= (NAMED_UNIT(#54)PLANE_ANGLE_UNIT()SI_UNIT($,.RADIAN.));
#28= (NAMED_UNIT(#54)SOLID_ANGLE_UNIT()SI_UNIT($,.STERADIAN.));
#30=PRESENTATION_STYLE_ASSIGNMENT((#60));
#31=ADVANCED_FACE('',(#61),#62,.T.);
#32=PRESENTATION_STYLE_ASSIGNMENT((#63));
#33=ADVANCED_FACE('',(#64),#65,.F.);
#34=PRESENTATION_STYLE_ASSIGNMENT((#66));
#35=ADVANCED_FACE('',(#67),#68,.F.);
#36=PRESENTATION_STYLE_ASSIGNMENT((#69));
#37=ADVANCED_FACE('',(#70),#71,.F.);
#38=PRESENTATION_STYLE_ASSIGNMENT((#72));
#39=ADVANCED_FACE('',(#73),#74,.F.);
#40=PRESENTATION_STYLE_ASSIGNMENT((#75));
#41=ADVANCED_FACE('',(#76),#77,.F.);
#42=PRESENTATION_STYLE_ASSIGNMENT((#78));
#43=MANIFOLD_SOLID_BREP('2023_07_22_16_03_20_0040',#79);
#44=PRODUCT('2023_07_22_16_03_20_0040','','PART--DESC',(#80));
#45=PRODUCT_DEFINITION('','NONE',#81,#2);
#46=AXIS2_PLACEMENT_3D('',#82,#83,#84);
#49=LENGTH_MEASURE_WITH_UNIT(LENGTH_MEASURE(1.0),#85);
#52=DIMENSIONAL_EXPONENTS(1.0,0.0,0.0,0.0,0.0,0.0,0.0);
#54=DIMENSIONAL_EXPONENTS(0.0,0.0,0.0,0.0,0.0,0.0,0.0);
#60=SURFACE_STYLE_USAGE(.BOTH.,#86);
#61=FACE_OUTER_BOUND('',#87,.T.);
#62=PLANE('',#88);
#63=SURFACE_STYLE_USAGE(.BOTH.,#86);
#64=FACE_OUTER_BOUND('',#90,.T.);
#65=PLANE('',#91);
#66=SURFACE_STYLE_USAGE(.BOTH.,#86);
#67=FACE_OUTER_BOUND('',#93,.T.);
#68=PLANE('',#94);
#69=SURFACE_STYLE_USAGE(.BOTH.,#86);
#70=FACE_OUTER_BOUND('',#96,.T.);
#71=PLANE('',#97);
#72=SURFACE_STYLE_USAGE(.BOTH.,#86);
#73=FACE_OUTER_BOUND('',#99,.T.);
#74=PLANE('',#100);
#75=SURFACE_STYLE_USAGE(.BOTH.,#86);
#76=FACE_OUTER_BOUND('',#102,.T.);
#77=PLANE('',#103);
#78=SURFACE_STYLE_USAGE(.BOTH.,#86);
#79=CLOSED_SHELL('',(#31,#33,#35,#37,#39,#41));
#80=PRODUCT_CONTEXT('',#17,'mechanical');
#81=PRODUCT_DEFINITION_FORMATION_WITH_SPECIFIED_SOURCE(' ','NONE',#44,.NOT_KNOWN.);
#82=CARTESIAN_POINT('',(0.0,0.0,0.0));
#83=DIRECTION('',(0.0,0.0,1.0));
#84=DIRECTION('',(1.0,0.0,0.0));
#85= (NAMED_UNIT(#52)LENGTH_UNIT()SI_UNIT(.MILLI.,.METRE.));
#86=SURFACE_SIDE_STYLE('',(#106));
#87=EDGE_LOOP('',(#107,#108,#109,#110));
#88=AXIS2_PLACEMENT_3D('',#111,#112,#113);
#90=EDGE_LOOP('',(#115,#116,#117,#118));
#91=AXIS2_PLACEMENT_3D('',#119,#120,#121);
#93=EDGE_LOOP('',(#123,#124,#125,#126));
#94=AXIS2_PLACEMENT_3D('',#127,#128,#129);
#96=EDGE_LOOP('',(#131,#132,#133,#134));
#97=AXIS2_PLACEMENT_3D('',#135,#136,#137);
#99=EDGE_LOOP('',(#139,#140,#141,#142));
#100=AXIS2_PLACEMENT_3D('',#143,#144,#145);
#102=EDGE_LOOP('',(#147,#148,#149,#150));
#103=AXIS2_PLACEMENT_3D('',#151,#152,#153);
#106=SURFACE_STYLE_FILL_AREA(#155);
#107=ORIENTED_EDGE('',*,*,#156,.T.);
#108=ORIENTED_EDGE('',*,*,#157,.T.);
#109=ORIENTED_EDGE('',*,*,#158,.T.);
#110=ORIENTED_EDGE('',*,*,#159,.T.);
#111=CARTESIAN_POINT('',(250.0,12.0,2.5));
#112=DIRECTION('',(-0.0,1.0,0.0));
#113=DIRECTION('',(1.0,0.0,0.0));
#115=ORIENTED_EDGE('',*,*,#161,.T.);
#116=ORIENTED_EDGE('',*,*,#162,.T.);
#117=ORIENTED_EDGE('',*,*,#163,.T.);
#118=ORIENTED_EDGE('',*,*,#164,.T.);
#119=CARTESIAN_POINT('',(250.0,0.0,2.5));
#120=DIRECTION('',(-0.0,1.0,0.0));
#121=DIRECTION('',(1.0,0.0,0.0));
#123=ORIENTED_EDGE('',*,*,#166,.T.);
#124=ORIENTED_EDGE('',*,*,#162,.F.);
#125=ORIENTED_EDGE('',*,*,#167,.F.);
#126=ORIENTED_EDGE('',*,*,#159,.F.);
#127=CARTESIAN_POINT('',(250.0,6.0,5.0));
#128=DIRECTION('',(0.0,0.0,-1.0));
#129=DIRECTION('',(0.0,-1.0,0.0));
#131=ORIENTED_EDGE('',*,*,#169,.T.);
#132=ORIENTED_EDGE('',*,*,#163,.F.);
#133=ORIENTED_EDGE('',*,*,#166,.F.);
#134=ORIENTED_EDGE('',*,*,#158,.F.);
#135=CARTESIAN_POINT('',(0.0,6.0,2.5));
#136=DIRECTION('',(1.0,0.0,0.0));
#137=DIRECTION('',(0.0,1.0,-0.0));
#139=ORIENTED_EDGE('',*,*,#171,.T.);
#140=ORIENTED_EDGE('',*,*,#164,.F.);
#141=ORIENTED_EDGE('',*,*,#169,.F.);
#142=ORIENTED_EDGE('',*,*,#157,.F.);
#143=CARTESIAN_POINT('',(250.0,6.0,0.0));
#144=DIRECTION('',(0.0,0.0,1.0));
#145=DIRECTION('',(1.0,-0.0,0.0));
#147=ORIENTED_EDGE('',*,*,#167,.T.);
#148=ORIENTED_EDGE('',*,*,#161,.F.);
#149=ORIENTED_EDGE('',*,*,#171,.F.);
#150=ORIENTED_EDGE('',*,*,#156,.F.);
#151=CARTESIAN_POINT('',(500.0,6.0,2.5));
#152=DIRECTION('',(-1.0,0.0,0.0));
#153=DIRECTION('',(0.0,0.0,1.0));
#155=FILL_AREA_STYLE('',(#174));
#156=EDGE_CURVE('',#175,#176,#177,.T.);
#157=EDGE_CURVE('',#176,#178,#179,.T.);
#158=EDGE_CURVE('',#178,#180,#181,.T.);
#159=EDGE_CURVE('',#180,#175,#182,.T.);
#161=EDGE_CURVE('',#184,#185,#186,.T.);
#162=EDGE_CURVE('',#185,#187,#188,.T.);
#163=EDGE_CURVE('',#187,#189,#190,.T.);
#164=EDGE_CURVE('',#189,#184,#191,.T.);
#166=EDGE_CURVE('',#180,#187,#193,.T.);
#167=EDGE_CURVE('',#175,#185,#194,.T.);
#169=EDGE_CURVE('',#178,#189,#196,.T.);
#171=EDGE_CURVE('',#176,#184,#198,.T.);
#174=FILL_AREA_STYLE_COLOUR('',#201);
#175=VERTEX_POINT('',#202);
#176=VERTEX_POINT('',#203);
#177=LINE('',#204,#205);
#178=VERTEX_POINT('',#206);
#179=LINE('',#207,#208);
#180=VERTEX_POINT('',#209);
#181=LINE('',#210,#211);
#182=LINE('',#212,#213);
#184=VERTEX_POINT('',#215);
#185=VERTEX_POINT('',#216);
#186=LINE('',#217,#218);
#187=VERTEX_POINT('',#219);
#188=LINE('',#220,#221);
#189=VERTEX_POINT('',#222);
#190=LINE('',#223,#224);
#191=LINE('',#225,#226);
#193=LINE('',#228,#229);
#194=LINE('',#230,#231);
#196=LINE('',#233,#234);
#198=LINE('',#236,#237);
#201=COLOUR_RGB('',0.721568644046783,0.450980395078659,0.200000002980232);
#202=CARTESIAN_POINT('',(500.0,12.0,5.0));
#203=CARTESIAN_POINT('',(500.0,12.0,0.0));
#204=CARTESIAN_POINT('',(500.0,12.0,2.5));
#205=VECTOR('',#240,1.0);
#206=CARTESIAN_POINT('',(0.0,12.0,0.0));
#207=CARTESIAN_POINT('',(250.0,12.0,0.0));
#208=VECTOR('',#241,1.0);
#209=CARTESIAN_POINT('',(0.0,12.0,5.0));
#210=CARTESIAN_POINT('',(0.0,12.0,2.5));
#211=VECTOR('',#242,1.0);
#212=CARTESIAN_POINT('',(250.0,12.0,5.0));
#213=VECTOR('',#243,1.0);
#215=CARTESIAN_POINT('',(500.0,0.0,0.0));
#216=CARTESIAN_POINT('',(500.0,0.0,5.0));
#217=CARTESIAN_POINT('',(500.0,0.0,2.5));
#218=VECTOR('',#244,1.0);
#219=CARTESIAN_POINT('',(0.0,0.0,5.0));
#220=CARTESIAN_POINT('',(250.0,0.0,5.0));
#221=VECTOR('',#245,1.0);
#222=CARTESIAN_POINT('',(0.0,0.0,0.0));
#223=CARTESIAN_POINT('',(0.0,0.0,2.5));
#224=VECTOR('',#246,1.0);
#225=CARTESIAN_POINT('',(250.0,0.0,0.0));
#226=VECTOR('',#247,1.0);
#228=CARTESIAN_POINT('',(0.0,6.0,5.0));
#229=VECTOR('',#248,1.0);
#230=CARTESIAN_POINT('',(500.0,6.0,5.0));
#231=VECTOR('',#249,1.0);
#233=CARTESIAN_POINT('',(0.0,6.0,0.0));
#234=VECTOR('',#250,1.0);
#236=CARTESIAN_POINT('',(500.0,6.0,0.0));
#237=VECTOR('',#251,1.0);
#240=DIRECTION('',(0.0,0.0,-1.0));
#241=DIRECTION('',(-1.0,0.0,0.0));
#242=DIRECTION('',(0.0,0.0,1.0));
#243=DIRECTION('',(1.0,0.0,0.0));
#244=DIRECTION('',(0.0,0.0,1.0));
#245=DIRECTION('',(-1.0,0.0,0.0));
#246=DIRECTION('',(0.0,0.0,-1.0));
#247=DIRECTION('',(1.0,0.0,0.0));
#248=DIRECTION('',(0.0,-1.0,0.0));
#249=DIRECTION('',(0.0,-1.0,0.0));
#250=DIRECTION('',(0.0,-1.0,0.0));
#251=DIRECTION('',(0.0,-1.0,0.0));
ENDSEC;
END-ISO-10303-21;

