ISO-10303-21;
HEADER;
FILE_DESCRIPTION(('STEP AP214'),'1');
FILE_NAME('cctmp_D498822E-5FB3-48B7-8B51-293750F77179_2023_07_21_23_22_18_0500..stp','2023-07-21T21:22:18',('SIEMENS A&D'),('CADClick - www.CADClick.com'),'Spatial InterOp 3D postprocessed',' ','unknown authorization');
FILE_SCHEMA(('AUTOMOTIVE_DESIGN'));
ENDSEC;
DATA;
#1=MECHANICAL_DESIGN_GEOMETRIC_PRESENTATION_REPRESENTATION(' ',(#10,#11,#12,#13,#14,#15,#16,#17,#18,#19,#20,#21),#6);
#2=PRODUCT_DEFINITION_CONTEXT('',#22,'design');
#3=APPLICATION_PROTOCOL_DEFINITION('INTERNATIONAL STANDARD','automotive_design',1994,#22);
#4=PRODUCT_CATEGORY_RELATIONSHIP('NONE','NONE',#23,#24);
#5=SHAPE_DEFINITION_REPRESENTATION(#25,#26);
#6= (GEOMETRIC_REPRESENTATION_CONTEXT(3)GLOBAL_UNCERTAINTY_ASSIGNED_CONTEXT((#29))GLOBAL_UNIT_ASSIGNED_CONTEXT((#31,#32,#33))REPRESENTATION_CONTEXT('NONE','WORKSPACE'));
#10=STYLED_ITEM('',(#35),#36);
#11=STYLED_ITEM('',(#37),#38);
#12=STYLED_ITEM('',(#39),#40);
#13=STYLED_ITEM('',(#41),#42);
#14=STYLED_ITEM('',(#43),#44);
#15=STYLED_ITEM('',(#45),#46);
#16=STYLED_ITEM('',(#47),#48);
#17=STYLED_ITEM('',(#49),#50);
#18=STYLED_ITEM('',(#51),#52);
#19=STYLED_ITEM('',(#53),#54);
#20=STYLED_ITEM('',(#55),#56);
#21=STYLED_ITEM('',(#57),#58);
#22=APPLICATION_CONTEXT(' ');
#23=PRODUCT_CATEGORY('part','NONE');
#24=PRODUCT_RELATED_PRODUCT_CATEGORY('detail',' ',(#59));
#25=PRODUCT_DEFINITION_SHAPE('NONE','NONE',#60);
#26=ADVANCED_BREP_SHAPE_REPRESENTATION('2023_07_21_23_22_18_0496',(#58,#61),#6);
#29=UNCERTAINTY_MEASURE_WITH_UNIT(LENGTH_MEASURE(1.0E-006),#31,'','');
#31= (CONVERSION_BASED_UNIT('MILLIMETRE',#64)LENGTH_UNIT()NAMED_UNIT(#67));
#32= (NAMED_UNIT(#69)PLANE_ANGLE_UNIT()SI_UNIT($,.RADIAN.));
#33= (NAMED_UNIT(#69)SOLID_ANGLE_UNIT()SI_UNIT($,.STERADIAN.));
#35=PRESENTATION_STYLE_ASSIGNMENT((#75));
#36=ADVANCED_FACE('',(#76),#77,.F.);
#37=PRESENTATION_STYLE_ASSIGNMENT((#78));
#38=ADVANCED_FACE('',(#79),#80,.T.);
#39=PRESENTATION_STYLE_ASSIGNMENT((#81));
#40=ADVANCED_FACE('',(#82),#83,.F.);
#41=PRESENTATION_STYLE_ASSIGNMENT((#84));
#42=ADVANCED_FACE('',(#85),#86,.F.);
#43=PRESENTATION_STYLE_ASSIGNMENT((#87));
#44=ADVANCED_FACE('',(#88),#89,.F.);
#45=PRESENTATION_STYLE_ASSIGNMENT((#90));
#46=ADVANCED_FACE('',(#91,#92),#93,.T.);
#47=PRESENTATION_STYLE_ASSIGNMENT((#94));
#48=ADVANCED_FACE('',(#95),#96,.F.);
#49=PRESENTATION_STYLE_ASSIGNMENT((#97));
#50=ADVANCED_FACE('',(#98),#99,.T.);
#51=PRESENTATION_STYLE_ASSIGNMENT((#100));
#52=ADVANCED_FACE('',(#101),#102,.T.);
#53=PRESENTATION_STYLE_ASSIGNMENT((#103));
#54=ADVANCED_FACE('',(#104),#105,.T.);
#55=PRESENTATION_STYLE_ASSIGNMENT((#106));
#56=ADVANCED_FACE('',(#107),#108,.T.);
#57=PRESENTATION_STYLE_ASSIGNMENT((#109));
#58=MANIFOLD_SOLID_BREP('2023_07_21_23_22_18_0496',#110);
#59=PRODUCT('2023_07_21_23_22_18_0496','','PART--DESC',(#111));
#60=PRODUCT_DEFINITION('','NONE',#112,#2);
#61=AXIS2_PLACEMENT_3D('',#113,#114,#115);
#64=LENGTH_MEASURE_WITH_UNIT(LENGTH_MEASURE(1.0),#116);
#67=DIMENSIONAL_EXPONENTS(1.0,0.0,0.0,0.0,0.0,0.0,0.0);
#69=DIMENSIONAL_EXPONENTS(0.0,0.0,0.0,0.0,0.0,0.0,0.0);
#75=SURFACE_STYLE_USAGE(.BOTH.,#117);
#76=FACE_OUTER_BOUND('',#118,.T.);
#77=PLANE('',#119);
#78=SURFACE_STYLE_USAGE(.BOTH.,#117);
#79=FACE_OUTER_BOUND('',#121,.T.);
#80=PLANE('',#122);
#81=SURFACE_STYLE_USAGE(.BOTH.,#117);
#82=FACE_OUTER_BOUND('',#124,.T.);
#83=PLANE('',#125);
#84=SURFACE_STYLE_USAGE(.BOTH.,#117);
#85=FACE_OUTER_BOUND('',#127,.T.);
#86=PLANE('',#128);
#87=SURFACE_STYLE_USAGE(.BOTH.,#117);
#88=FACE_OUTER_BOUND('',#130,.T.);
#89=PLANE('',#131);
#90=SURFACE_STYLE_USAGE(.BOTH.,#117);
#91=FACE_BOUND('',#133,.T.);
#92=FACE_OUTER_BOUND('',#134,.T.);
#93=PLANE('',#135);
#94=SURFACE_STYLE_USAGE(.BOTH.,#117);
#95=FACE_OUTER_BOUND('',#137,.T.);
#96=PLANE('',#138);
#97=SURFACE_STYLE_USAGE(.BOTH.,#117);
#98=FACE_OUTER_BOUND('',#140,.T.);
#99=PLANE('',#141);
#100=SURFACE_STYLE_USAGE(.BOTH.,#117);
#101=FACE_OUTER_BOUND('',#143,.T.);
#102=PLANE('',#144);
#103=SURFACE_STYLE_USAGE(.BOTH.,#117);
#104=FACE_OUTER_BOUND('',#146,.T.);
#105=PLANE('',#147);
#106=SURFACE_STYLE_USAGE(.BOTH.,#117);
#107=FACE_OUTER_BOUND('',#149,.T.);
#108=PLANE('',#150);
#109=SURFACE_STYLE_USAGE(.BOTH.,#151);
#110=CLOSED_SHELL('',(#36,#38,#40,#42,#44,#46,#48,#50,#52,#54,#56));
#111=PRODUCT_CONTEXT('',#22,'mechanical');
#112=PRODUCT_DEFINITION_FORMATION_WITH_SPECIFIED_SOURCE(' ','NONE',#59,.NOT_KNOWN.);
#113=CARTESIAN_POINT('',(0.0,0.0,0.0));
#114=DIRECTION('',(0.0,0.0,1.0));
#115=DIRECTION('',(1.0,0.0,0.0));
#116= (NAMED_UNIT(#67)LENGTH_UNIT()SI_UNIT(.MILLI.,.METRE.));
#117=SURFACE_SIDE_STYLE('',(#153));
#118=EDGE_LOOP('',(#154,#155,#156,#157));
#119=AXIS2_PLACEMENT_3D('',#158,#159,#160);
#121=EDGE_LOOP('',(#162,#163,#164,#165));
#122=AXIS2_PLACEMENT_3D('',#166,#167,#168);
#124=EDGE_LOOP('',(#170,#171,#172,#173));
#125=AXIS2_PLACEMENT_3D('',#174,#175,#176);
#127=EDGE_LOOP('',(#178,#179,#180,#181));
#128=AXIS2_PLACEMENT_3D('',#182,#183,#184);
#130=EDGE_LOOP('',(#186,#187,#188,#189));
#131=AXIS2_PLACEMENT_3D('',#190,#191,#192);
#133=EDGE_LOOP('',(#194,#195,#196,#197));
#134=EDGE_LOOP('',(#198,#199,#200,#201));
#135=AXIS2_PLACEMENT_3D('',#202,#203,#204);
#137=EDGE_LOOP('',(#206,#207,#208,#209));
#138=AXIS2_PLACEMENT_3D('',#210,#211,#212);
#140=EDGE_LOOP('',(#214,#215,#216,#217));
#141=AXIS2_PLACEMENT_3D('',#218,#219,#220);
#143=EDGE_LOOP('',(#222,#223,#224,#225));
#144=AXIS2_PLACEMENT_3D('',#226,#227,#228);
#146=EDGE_LOOP('',(#230,#231,#232,#233));
#147=AXIS2_PLACEMENT_3D('',#234,#235,#236);
#149=EDGE_LOOP('',(#238,#239,#240,#241));
#150=AXIS2_PLACEMENT_3D('',#242,#243,#244);
#151=SURFACE_SIDE_STYLE('',(#245));
#153=SURFACE_STYLE_FILL_AREA(#246);
#154=ORIENTED_EDGE('',*,*,#247,.T.);
#155=ORIENTED_EDGE('',*,*,#248,.T.);
#156=ORIENTED_EDGE('',*,*,#249,.F.);
#157=ORIENTED_EDGE('',*,*,#250,.F.);
#158=CARTESIAN_POINT('',(1.69999999999904,42.3815805521362,42.3135826311206));
#159=DIRECTION('',(-1.0,1.22464679914735E-016,-1.54074395550979E-033));
#160=DIRECTION('',(1.54074395550979E-033,0.0,-1.0));
#162=ORIENTED_EDGE('',*,*,#252,.F.);
#163=ORIENTED_EDGE('',*,*,#253,.F.);
#164=ORIENTED_EDGE('',*,*,#248,.F.);
#165=ORIENTED_EDGE('',*,*,#254,.F.);
#166=CARTESIAN_POINT('',(-7.379718960358,25.0955135297743,54.7999999826993));
#167=DIRECTION('',(7.17360411050131E-031,-3.62957345394131E-014,1.0));
#168=DIRECTION('',(0.0,-1.0,-3.62957345394131E-014));
#170=ORIENTED_EDGE('',*,*,#249,.T.);
#171=ORIENTED_EDGE('',*,*,#253,.T.);
#172=ORIENTED_EDGE('',*,*,#256,.F.);
#173=ORIENTED_EDGE('',*,*,#257,.F.);
#174=CARTESIAN_POINT('',(15.8999999999991,42.381580542634,42.313582631952));
#175=DIRECTION('',(1.21998667791541E-016,0.996194722237312,-0.0871554667621309));
#176=DIRECTION('',(1.0,0.0,1.3997821631144E-015));
#178=ORIENTED_EDGE('',*,*,#256,.T.);
#179=ORIENTED_EDGE('',*,*,#252,.T.);
#180=ORIENTED_EDGE('',*,*,#259,.F.);
#181=ORIENTED_EDGE('',*,*,#260,.F.);
#182=CARTESIAN_POINT('',(15.8999999999991,37.7990770772352,42.7144984564897));
#183=DIRECTION('',(1.0,-1.22464679914735E-016,-1.88686715342069E-049));
#184=DIRECTION('',(0.0,1.54074395550979E-033,-1.0));
#186=ORIENTED_EDGE('',*,*,#259,.T.);
#187=ORIENTED_EDGE('',*,*,#254,.T.);
#188=ORIENTED_EDGE('',*,*,#247,.F.);
#189=ORIENTED_EDGE('',*,*,#262,.F.);
#190=CARTESIAN_POINT('',(1.69999999999904,37.7990770706191,42.7144984570686));
#191=DIRECTION('',(-1.21998667791541E-016,-0.996194722237312,0.0871554667621309));
#192=DIRECTION('',(0.0,0.0871554667621309,0.996194722237312));
#194=ORIENTED_EDGE('',*,*,#257,.T.);
#195=ORIENTED_EDGE('',*,*,#260,.T.);
#196=ORIENTED_EDGE('',*,*,#262,.T.);
#197=ORIENTED_EDGE('',*,*,#250,.T.);
#198=ORIENTED_EDGE('',*,*,#264,.F.);
#199=ORIENTED_EDGE('',*,*,#265,.F.);
#200=ORIENTED_EDGE('',*,*,#266,.T.);
#201=ORIENTED_EDGE('',*,*,#267,.F.);
#202=CARTESIAN_POINT('',(65.999999972025,32.4499999602356,55.2999999826993));
#203=DIRECTION('',(7.17360411050131E-031,-3.62957345394131E-014,1.0));
#204=DIRECTION('',(0.0,-1.0,-3.62957345394131E-014));
#206=ORIENTED_EDGE('',*,*,#269,.T.);
#207=ORIENTED_EDGE('',*,*,#270,.T.);
#208=ORIENTED_EDGE('',*,*,#271,.F.);
#209=ORIENTED_EDGE('',*,*,#266,.F.);
#210=CARTESIAN_POINT('',(17.599999999999,-11.4894034409167,11.368349404128));
#211=DIRECTION('',(-1.0,0.0,0.0));
#212=DIRECTION('',(0.0,1.0,0.0));
#214=ORIENTED_EDGE('',*,*,#271,.T.);
#215=ORIENTED_EDGE('',*,*,#273,.F.);
#216=ORIENTED_EDGE('',*,*,#274,.F.);
#217=ORIENTED_EDGE('',*,*,#267,.T.);
#218=CARTESIAN_POINT('',(19.360002399999,45.1000000000002,3.35020899910887E-011));
#219=DIRECTION('',(-0.0,1.0,1.25205768415877E-014));
#220=DIRECTION('',(1.0,0.0,0.0));
#222=ORIENTED_EDGE('',*,*,#276,.T.);
#223=ORIENTED_EDGE('',*,*,#277,.F.);
#224=ORIENTED_EDGE('',*,*,#269,.F.);
#225=ORIENTED_EDGE('',*,*,#265,.T.);
#226=CARTESIAN_POINT('',(19.360002399999,-2.98427949019242E-013,43.1918080000327));
#227=DIRECTION('',(-0.0,-1.0,-1.25205768415877E-014));
#228=DIRECTION('',(-1.0,0.0,0.0));
#230=ORIENTED_EDGE('',*,*,#274,.T.);
#231=ORIENTED_EDGE('',*,*,#279,.F.);
#232=ORIENTED_EDGE('',*,*,#276,.F.);
#233=ORIENTED_EDGE('',*,*,#264,.T.);
#234=CARTESIAN_POINT('',(-9.59232693276135E-013,-11.1549245485416,10.0786748889691));
#235=DIRECTION('',(-1.0,0.0,0.0));
#236=DIRECTION('',(0.0,1.0,0.0));
#238=ORIENTED_EDGE('',*,*,#273,.T.);
#239=ORIENTED_EDGE('',*,*,#270,.F.);
#240=ORIENTED_EDGE('',*,*,#277,.T.);
#241=ORIENTED_EDGE('',*,*,#279,.T.);
#242=CARTESIAN_POINT('',(19.360002399999,3.01980662698043E-013,3.28981286656926E-011));
#243=DIRECTION('',(0.0,1.25205768415877E-014,-1.0));
#244=DIRECTION('',(1.0,0.0,0.0));
#245=SURFACE_STYLE_FILL_AREA(#281);
#246=FILL_AREA_STYLE('',(#282));
#247=EDGE_CURVE('',#283,#284,#285,.T.);
#248=EDGE_CURVE('',#284,#286,#287,.T.);
#249=EDGE_CURVE('',#288,#286,#289,.T.);
#250=EDGE_CURVE('',#283,#288,#290,.T.);
#252=EDGE_CURVE('',#292,#293,#294,.T.);
#253=EDGE_CURVE('',#286,#292,#295,.T.);
#254=EDGE_CURVE('',#293,#284,#296,.T.);
#256=EDGE_CURVE('',#298,#292,#299,.T.);
#257=EDGE_CURVE('',#288,#298,#300,.T.);
#259=EDGE_CURVE('',#302,#293,#303,.T.);
#260=EDGE_CURVE('',#298,#302,#304,.T.);
#262=EDGE_CURVE('',#302,#283,#306,.T.);
#264=EDGE_CURVE('',#308,#309,#310,.T.);
#265=EDGE_CURVE('',#311,#308,#312,.T.);
#266=EDGE_CURVE('',#311,#313,#314,.T.);
#267=EDGE_CURVE('',#309,#313,#315,.T.);
#269=EDGE_CURVE('',#311,#317,#318,.T.);
#270=EDGE_CURVE('',#317,#319,#320,.T.);
#271=EDGE_CURVE('',#313,#319,#321,.T.);
#273=EDGE_CURVE('',#323,#319,#324,.T.);
#274=EDGE_CURVE('',#309,#323,#325,.T.);
#276=EDGE_CURVE('',#308,#327,#328,.T.);
#277=EDGE_CURVE('',#317,#327,#329,.T.);
#279=EDGE_CURVE('',#327,#323,#331,.T.);
#281=FILL_AREA_STYLE('',(#333));
#282=FILL_AREA_STYLE_COLOUR('',#334);
#283=VERTEX_POINT('',#335);
#284=VERTEX_POINT('',#336);
#285=LINE('',#337,#338);
#286=VERTEX_POINT('',#339);
#287=LINE('',#340,#341);
#288=VERTEX_POINT('',#342);
#289=LINE('',#343,#344);
#290=LINE('',#345,#346);
#292=VERTEX_POINT('',#348);
#293=VERTEX_POINT('',#349);
#294=LINE('',#350,#351);
#295=LINE('',#352,#353);
#296=LINE('',#354,#355);
#298=VERTEX_POINT('',#357);
#299=LINE('',#358,#359);
#300=LINE('',#360,#361);
#302=VERTEX_POINT('',#363);
#303=LINE('',#364,#365);
#304=LINE('',#366,#367);
#306=LINE('',#369,#370);
#308=VERTEX_POINT('',#372);
#309=VERTEX_POINT('',#373);
#310=LINE('',#374,#375);
#311=VERTEX_POINT('',#376);
#312=LINE('',#377,#378);
#313=VERTEX_POINT('',#379);
#314=LINE('',#380,#381);
#315=LINE('',#382,#383);
#317=VERTEX_POINT('',#385);
#318=LINE('',#386,#387);
#319=VERTEX_POINT('',#388);
#320=LINE('',#389,#390);
#321=LINE('',#391,#392);
#323=VERTEX_POINT('',#394);
#324=LINE('',#395,#396);
#325=LINE('',#397,#398);
#327=VERTEX_POINT('',#400);
#328=LINE('',#401,#402);
#329=LINE('',#403,#404);
#331=LINE('',#406,#407);
#333=FILL_AREA_STYLE_COLOUR('',#409);
#334=COLOUR_RGB('',0.874509811401367,0.874509811401367,0.874509811401367);
#335=CARTESIAN_POINT('',(1.69999999999904,38.9001622655281,55.2999999827003));
#336=CARTESIAN_POINT('',(1.69999999999904,38.8564180733452,54.7999999827003));
#337=CARTESIAN_POINT('',(1.69999999999904,29.8000938907443,-48.714589391254));
#338=VECTOR('',#410,1.0);
#339=CARTESIAN_POINT('',(1.69999999999904,43.4739970231662,54.7999999827003));
#340=CARTESIAN_POINT('',(1.69999999999904,22.5462375298784,54.7999999826993));
#341=VECTOR('',#411,1.0);
#342=CARTESIAN_POINT('',(1.69999999999904,43.517741215349,55.2999999827003));
#343=CARTESIAN_POINT('',(1.69999999999904,34.4176728405651,-48.714589391254));
#344=VECTOR('',#412,1.0);
#345=CARTESIAN_POINT('',(1.69999999999904,22.5462375298784,55.2999999826993));
#346=VECTOR('',#413,1.0);
#348=CARTESIAN_POINT('',(15.8999999999991,43.4739970231662,54.7999999827003));
#349=CARTESIAN_POINT('',(15.8999999999991,38.8564180733452,54.7999999827003));
#350=CARTESIAN_POINT('',(15.8999999999991,22.5462375298784,54.7999999826993));
#351=VECTOR('',#414,1.0);
#352=CARTESIAN_POINT('',(17.599999999999,43.4739970231662,54.7999999827003));
#353=VECTOR('',#415,1.0);
#354=CARTESIAN_POINT('',(17.599999999999,38.8564180733452,54.7999999827003));
#355=VECTOR('',#416,1.0);
#357=CARTESIAN_POINT('',(15.8999999999991,43.517741215349,55.2999999827003));
#358=CARTESIAN_POINT('',(15.8999999999991,34.4176728405651,-48.714589391254));
#359=VECTOR('',#417,1.0);
#360=CARTESIAN_POINT('',(17.599999999999,43.517741215349,55.2999999827003));
#361=VECTOR('',#418,1.0);
#363=CARTESIAN_POINT('',(15.8999999999991,38.9001622655281,55.2999999827003));
#364=CARTESIAN_POINT('',(15.8999999999991,29.8000938907443,-48.714589391254));
#365=VECTOR('',#419,1.0);
#366=CARTESIAN_POINT('',(15.8999999999991,22.5462375298784,55.2999999826993));
#367=VECTOR('',#420,1.0);
#369=CARTESIAN_POINT('',(17.599999999999,38.9001622655281,55.2999999827003));
#370=VECTOR('',#421,1.0);
#372=CARTESIAN_POINT('',(-9.59232693276135E-013,-3.97903932025656E-013,55.2999999826983));
#373=CARTESIAN_POINT('',(-9.59232693276135E-013,45.0999999999996,55.2999999827003));
#374=CARTESIAN_POINT('',(-9.59232693276135E-013,22.5462375298784,55.2999999826993));
#375=VECTOR('',#422,1.0);
#376=CARTESIAN_POINT('',(17.599999999999,-3.97903932025656E-013,55.2999999826983));
#377=CARTESIAN_POINT('',(17.599999999999,-3.97903932025656E-013,55.2999999826983));
#378=VECTOR('',#423,1.0);
#379=CARTESIAN_POINT('',(17.599999999999,45.0999999999996,55.2999999827003));
#380=CARTESIAN_POINT('',(17.599999999999,22.5462375298784,55.2999999826993));
#381=VECTOR('',#424,1.0);
#382=CARTESIAN_POINT('',(17.599999999999,45.0999999999996,55.2999999827003));
#383=VECTOR('',#425,1.0);
#385=CARTESIAN_POINT('',(17.599999999999,3.01980662698043E-013,3.28981286656926E-011));
#386=CARTESIAN_POINT('',(17.599999999999,9.02389274415327E-013,-48.714589391254));
#387=VECTOR('',#426,1.0);
#388=CARTESIAN_POINT('',(17.599999999999,45.1000000000002,3.35020899910887E-011));
#389=CARTESIAN_POINT('',(17.599999999999,22.5462375298784,3.32036620420695E-011));
#390=VECTOR('',#427,1.0);
#391=CARTESIAN_POINT('',(17.599999999999,45.1000000000009,-48.714589391254));
#392=VECTOR('',#428,1.0);
#394=CARTESIAN_POINT('',(-9.59232693276135E-013,45.1000000000002,3.35020899910887E-011));
#395=CARTESIAN_POINT('',(17.599999999999,45.1000000000002,3.45039552485105E-011));
#396=VECTOR('',#429,1.0);
#397=CARTESIAN_POINT('',(-9.59232693276135E-013,45.1000000000009,-48.714589391254));
#398=VECTOR('',#430,1.0);
#400=CARTESIAN_POINT('',(-9.59232693276135E-013,3.01980662698043E-013,3.28981286656926E-011));
#401=CARTESIAN_POINT('',(-9.59232693276135E-013,9.02389274415327E-013,-48.714589391254));
#402=VECTOR('',#431,1.0);
#403=CARTESIAN_POINT('',(17.599999999999,3.01980662698043E-013,3.28981286656926E-011));
#404=VECTOR('',#432,1.0);
#406=CARTESIAN_POINT('',(-9.59232693276135E-013,22.5462375298784,3.32036620420695E-011));
#407=VECTOR('',#433,1.0);
#409=COLOUR_RGB('',0.874494552612305,0.874494552612305,0.874494552612305);
#410=DIRECTION('',(-6.93889390390723E-018,-0.0871554667621309,-0.996194722237312));
#411=DIRECTION('',(1.22464679914735E-016,1.0,3.62957345394131E-014));
#412=DIRECTION('',(-6.93889390390723E-018,-0.0871554667621309,-0.996194722237312));
#413=DIRECTION('',(1.22464679914735E-016,1.0,3.62957345394131E-014));
#414=DIRECTION('',(-1.22464679914735E-016,-1.0,-3.62957345394131E-014));
#415=DIRECTION('',(1.0,-1.22464679914736E-016,-5.15955537692183E-030));
#416=DIRECTION('',(-1.0,1.22464679914736E-016,5.15955537692183E-030));
#417=DIRECTION('',(-6.93889390390723E-018,-0.0871554667621309,-0.996194722237312));
#418=DIRECTION('',(1.0,-1.22464679914736E-016,-5.15955537692183E-030));
#419=DIRECTION('',(-6.93889390390723E-018,-0.0871554667621309,-0.996194722237312));
#420=DIRECTION('',(-1.22464679914735E-016,-1.0,-3.62957345394131E-014));
#421=DIRECTION('',(-1.0,1.22464679914736E-016,5.15955537692183E-030));
#422=DIRECTION('',(0.0,1.0,3.62957345394131E-014));
#423=DIRECTION('',(-1.0,-8.97706828708086E-045,7.17360411050131E-031));
#424=DIRECTION('',(0.0,1.0,3.62957345394131E-014));
#425=DIRECTION('',(1.0,8.97706828708086E-045,-7.17360411050131E-031));
#426=DIRECTION('',(0.0,1.25205768415877E-014,-1.0));
#427=DIRECTION('',(0.0,1.0,1.25205768415877E-014));
#428=DIRECTION('',(0.0,1.25205768415877E-014,-1.0));
#429=DIRECTION('',(1.0,4.55422000905566E-044,-3.65034694756471E-030));
#430=DIRECTION('',(0.0,1.25205768415877E-014,-1.0));
#431=DIRECTION('',(0.0,1.25205768415877E-014,-1.0));
#432=DIRECTION('',(-1.0,-4.55422000905566E-044,3.65034694756471E-030));
#433=DIRECTION('',(0.0,1.0,1.25205768415877E-014));
#434=PRESENTATION_LAYER_ASSIGNMENT('1','Layer 1',(#58));
ENDSEC;
END-ISO-10303-21;

