ISO-10303-21;
HEADER;
FILE_DESCRIPTION(('STEP AP214'),'1');
FILE_NAME('cctmp_DC335D27-D175-4D84-9F71-1E10D6B51034_2023_03_29_09_45_28_0908..stp','2023-03-29T07:45:29',('SIEMENS A&D'),('CADClick - www.CADClick.com'),'Spatial InterOp 3D postprocessed',' ','unknown authorization');
FILE_SCHEMA(('AUTOMOTIVE_DESIGN'));
ENDSEC;
DATA;
#1=MECHANICAL_DESIGN_GEOMETRIC_PRESENTATION_REPRESENTATION(' ',(#10,#11,#12,#13,#14,#15,#16),#6);
#2=PRODUCT_DEFINITION_CONTEXT('',#17,'design');
#3=APPLICATION_PROTOCOL_DEFINITION('INTERNATIONAL STANDARD','automotive_design',1994,#17);
#4=PRODUCT_CATEGORY_RELATIONSHIP('NONE','NONE',#18,#19);
#5=SHAPE_DEFINITION_REPRESENTATION(#20,#21);
#6= (GEOMETRIC_REPRESENTATION_CONTEXT(3)GLOBAL_UNCERTAINTY_ASSIGNED_CONTEXT((#24))GLOBAL_UNIT_ASSIGNED_CONTEXT((#26,#27,#28))REPRESENTATION_CONTEXT('NONE','WORKSPACE'));
#10=STYLED_ITEM('',(#30),#31);
#11=STYLED_ITEM('',(#32),#33);
#12=STYLED_ITEM('',(#34),#35);
#13=STYLED_ITEM('',(#36),#37);
#14=STYLED_ITEM('',(#38),#39);
#15=STYLED_ITEM('',(#40),#41);
#16=STYLED_ITEM('',(#42),#43);
#17=APPLICATION_CONTEXT(' ');
#18=PRODUCT_CATEGORY('part','NONE');
#19=PRODUCT_RELATED_PRODUCT_CATEGORY('detail',' ',(#44));
#20=PRODUCT_DEFINITION_SHAPE('NONE','NONE',#45);
#21=ADVANCED_BREP_SHAPE_REPRESENTATION('2023_03_29_09_45_28_0904',(#43,#46),#6);
#24=UNCERTAINTY_MEASURE_WITH_UNIT(LENGTH_MEASURE(1.0E-006),#26,'','');
#26= (CONVERSION_BASED_UNIT('MILLIMETRE',#49)LENGTH_UNIT()NAMED_UNIT(#52));
#27= (NAMED_UNIT(#54)PLANE_ANGLE_UNIT()SI_UNIT($,.RADIAN.));
#28= (NAMED_UNIT(#54)SOLID_ANGLE_UNIT()SI_UNIT($,.STERADIAN.));
#30=PRESENTATION_STYLE_ASSIGNMENT((#60));
#31=ADVANCED_FACE('',(#61),#62,.F.);
#32=PRESENTATION_STYLE_ASSIGNMENT((#63));
#33=ADVANCED_FACE('',(#64),#65,.T.);
#34=PRESENTATION_STYLE_ASSIGNMENT((#66));
#35=ADVANCED_FACE('',(#67),#68,.T.);
#36=PRESENTATION_STYLE_ASSIGNMENT((#69));
#37=ADVANCED_FACE('',(#70),#71,.F.);
#38=PRESENTATION_STYLE_ASSIGNMENT((#72));
#39=ADVANCED_FACE('',(#73,#74),#75,.F.);
#40=PRESENTATION_STYLE_ASSIGNMENT((#76));
#41=ADVANCED_FACE('',(#77,#78),#79,.F.);
#42=PRESENTATION_STYLE_ASSIGNMENT((#80));
#43=MANIFOLD_SOLID_BREP('2023_03_29_09_45_28_0904',#81);
#44=PRODUCT('2023_03_29_09_45_28_0904','','PART--DESC',(#82));
#45=PRODUCT_DEFINITION('','NONE',#83,#2);
#46=AXIS2_PLACEMENT_3D('',#84,#85,#86);
#49=LENGTH_MEASURE_WITH_UNIT(LENGTH_MEASURE(1.0),#87);
#52=DIMENSIONAL_EXPONENTS(1.0,0.0,0.0,0.0,0.0,0.0,0.0);
#54=DIMENSIONAL_EXPONENTS(0.0,0.0,0.0,0.0,0.0,0.0,0.0);
#60=SURFACE_STYLE_USAGE(.BOTH.,#88);
#61=FACE_OUTER_BOUND('',#89,.T.);
#62=CYLINDRICAL_SURFACE('',#90,10.5);
#63=SURFACE_STYLE_USAGE(.BOTH.,#88);
#64=FACE_OUTER_BOUND('',#92,.T.);
#65=CYLINDRICAL_SURFACE('',#93,18.5);
#66=SURFACE_STYLE_USAGE(.BOTH.,#88);
#67=FACE_OUTER_BOUND('',#95,.T.);
#68=CYLINDRICAL_SURFACE('',#96,18.5);
#69=SURFACE_STYLE_USAGE(.BOTH.,#88);
#70=FACE_OUTER_BOUND('',#98,.T.);
#71=CYLINDRICAL_SURFACE('',#99,10.5);
#72=SURFACE_STYLE_USAGE(.BOTH.,#88);
#73=FACE_OUTER_BOUND('',#101,.T.);
#74=FACE_BOUND('',#102,.T.);
#75=PLANE('',#103);
#76=SURFACE_STYLE_USAGE(.BOTH.,#88);
#77=FACE_BOUND('',#105,.T.);
#78=FACE_OUTER_BOUND('',#106,.T.);
#79=PLANE('',#107);
#80=SURFACE_STYLE_USAGE(.BOTH.,#108);
#81=CLOSED_SHELL('',(#31,#33,#35,#37,#39,#41));
#82=PRODUCT_CONTEXT('',#17,'mechanical');
#83=PRODUCT_DEFINITION_FORMATION_WITH_SPECIFIED_SOURCE(' ','NONE',#44,.NOT_KNOWN.);
#84=CARTESIAN_POINT('',(0.0,0.0,0.0));
#85=DIRECTION('',(0.0,0.0,1.0));
#86=DIRECTION('',(1.0,0.0,0.0));
#87= (NAMED_UNIT(#52)LENGTH_UNIT()SI_UNIT(.MILLI.,.METRE.));
#88=SURFACE_SIDE_STYLE('',(#110));
#89=EDGE_LOOP('',(#111,#112,#113,#114));
#90=AXIS2_PLACEMENT_3D('',#115,#116,#117);
#92=EDGE_LOOP('',(#119,#120,#121,#122));
#93=AXIS2_PLACEMENT_3D('',#123,#124,#125);
#95=EDGE_LOOP('',(#127,#128,#129,#130));
#96=AXIS2_PLACEMENT_3D('',#131,#132,#133);
#98=EDGE_LOOP('',(#135,#136,#137,#138));
#99=AXIS2_PLACEMENT_3D('',#139,#140,#141);
#101=EDGE_LOOP('',(#143,#144));
#102=EDGE_LOOP('',(#145,#146));
#103=AXIS2_PLACEMENT_3D('',#147,#148,#149);
#105=EDGE_LOOP('',(#151,#152));
#106=EDGE_LOOP('',(#153,#154));
#107=AXIS2_PLACEMENT_3D('',#155,#156,#157);
#108=SURFACE_SIDE_STYLE('',(#158));
#110=SURFACE_STYLE_FILL_AREA(#159);
#111=ORIENTED_EDGE('',*,*,#160,.F.);
#112=ORIENTED_EDGE('',*,*,#161,.T.);
#113=ORIENTED_EDGE('',*,*,#162,.F.);
#114=ORIENTED_EDGE('',*,*,#163,.F.);
#115=CARTESIAN_POINT('',(18.4482702479,18.5,34.9249999999999));
#116=DIRECTION('',(1.17145536458252E-015,0.0,-1.0));
#117=DIRECTION('',(0.0,-1.0,0.0));
#119=ORIENTED_EDGE('',*,*,#165,.F.);
#120=ORIENTED_EDGE('',*,*,#166,.T.);
#121=ORIENTED_EDGE('',*,*,#167,.F.);
#122=ORIENTED_EDGE('',*,*,#168,.F.);
#123=CARTESIAN_POINT('',(18.4482702479,18.5,34.9249999999999));
#124=DIRECTION('',(1.17145536458252E-015,0.0,-1.0));
#125=DIRECTION('',(0.0,-1.0,0.0));
#127=ORIENTED_EDGE('',*,*,#165,.T.);
#128=ORIENTED_EDGE('',*,*,#170,.F.);
#129=ORIENTED_EDGE('',*,*,#167,.T.);
#130=ORIENTED_EDGE('',*,*,#171,.T.);
#131=CARTESIAN_POINT('',(18.4482702479,18.5,34.9249999999999));
#132=DIRECTION('',(1.17145536458252E-015,0.0,-1.0));
#133=DIRECTION('',(0.0,-1.0,0.0));
#135=ORIENTED_EDGE('',*,*,#160,.T.);
#136=ORIENTED_EDGE('',*,*,#173,.F.);
#137=ORIENTED_EDGE('',*,*,#162,.T.);
#138=ORIENTED_EDGE('',*,*,#174,.T.);
#139=CARTESIAN_POINT('',(18.4482702479,18.5,34.9249999999999));
#140=DIRECTION('',(1.17145536458252E-015,0.0,-1.0));
#141=DIRECTION('',(0.0,-1.0,0.0));
#143=ORIENTED_EDGE('',*,*,#171,.F.);
#144=ORIENTED_EDGE('',*,*,#166,.F.);
#145=ORIENTED_EDGE('',*,*,#173,.T.);
#146=ORIENTED_EDGE('',*,*,#163,.T.);
#147=CARTESIAN_POINT('',(7.9482702479,18.5,-9.99200722162641E-015));
#148=DIRECTION('',(-1.17145536458252E-015,0.0,1.0));
#149=DIRECTION('',(-1.0,0.0,-1.17145536458252E-015));
#151=ORIENTED_EDGE('',*,*,#174,.F.);
#152=ORIENTED_EDGE('',*,*,#161,.F.);
#153=ORIENTED_EDGE('',*,*,#170,.T.);
#154=ORIENTED_EDGE('',*,*,#168,.T.);
#155=CARTESIAN_POINT('',(-0.0517297521000017,18.5,2.99999999999998));
#156=DIRECTION('',(1.60759718329572E-045,1.37230767120917E-030,-1.0));
#157=DIRECTION('',(1.0,-1.17145536458252E-015,0.0));
#158=SURFACE_STYLE_FILL_AREA(#177);
#159=FILL_AREA_STYLE('',(#178));
#160=EDGE_CURVE('',#179,#180,#181,.T.);
#161=EDGE_CURVE('',#179,#182,#183,.T.);
#162=EDGE_CURVE('',#184,#182,#185,.T.);
#163=EDGE_CURVE('',#180,#184,#186,.T.);
#165=EDGE_CURVE('',#188,#189,#190,.T.);
#166=EDGE_CURVE('',#188,#191,#192,.T.);
#167=EDGE_CURVE('',#193,#191,#194,.T.);
#168=EDGE_CURVE('',#189,#193,#195,.T.);
#170=EDGE_CURVE('',#193,#189,#197,.T.);
#171=EDGE_CURVE('',#191,#188,#198,.T.);
#173=EDGE_CURVE('',#184,#180,#200,.T.);
#174=EDGE_CURVE('',#182,#179,#201,.T.);
#177=FILL_AREA_STYLE('',(#204));
#178=FILL_AREA_STYLE_COLOUR('',#205);
#179=VERTEX_POINT('',#206);
#180=VERTEX_POINT('',#207);
#181=LINE('',#208,#209);
#182=VERTEX_POINT('',#210);
#183=CIRCLE('',#211,10.5);
#184=VERTEX_POINT('',#212);
#185=LINE('',#213,#214);
#186=CIRCLE('',#215,10.5);
#188=VERTEX_POINT('',#217);
#189=VERTEX_POINT('',#218);
#190=LINE('',#219,#220);
#191=VERTEX_POINT('',#221);
#192=CIRCLE('',#222,18.5);
#193=VERTEX_POINT('',#223);
#194=LINE('',#224,#225);
#195=CIRCLE('',#226,18.5);
#197=CIRCLE('',#228,18.5);
#198=CIRCLE('',#229,18.5);
#200=CIRCLE('',#231,10.5);
#201=CIRCLE('',#232,10.5);
#204=FILL_AREA_STYLE_COLOUR('',#235);
#205=COLOUR_RGB('',0.800000011920929,0.800000011920929,0.800000011920929);
#206=CARTESIAN_POINT('',(18.4482702479,8.0,3.0));
#207=CARTESIAN_POINT('',(18.4482702479,8.0,2.05846150681375E-030));
#208=CARTESIAN_POINT('',(18.4482702479,8.0,1.5));
#209=VECTOR('',#236,1.0);
#210=CARTESIAN_POINT('',(18.4482702479,29.0,3.0));
#211=AXIS2_PLACEMENT_3D('',#237,#238,#239);
#212=CARTESIAN_POINT('',(18.4482702479,29.0,0.0));
#213=CARTESIAN_POINT('',(18.4482702479,29.0,1.5));
#214=VECTOR('',#240,1.0);
#215=AXIS2_PLACEMENT_3D('',#241,#242,#243);
#217=CARTESIAN_POINT('',(18.4482702479,0.0,6.2203070046703E-030));
#218=CARTESIAN_POINT('',(18.4482702479,0.0,3.0));
#219=CARTESIAN_POINT('',(18.4482702479,0.0,1.5));
#220=VECTOR('',#244,1.0);
#221=CARTESIAN_POINT('',(18.4482702479,37.0,0.0));
#222=AXIS2_PLACEMENT_3D('',#245,#246,#247);
#223=CARTESIAN_POINT('',(18.4482702479,37.0,3.0));
#224=CARTESIAN_POINT('',(18.4482702479,37.0,1.5));
#225=VECTOR('',#248,1.0);
#226=AXIS2_PLACEMENT_3D('',#249,#250,#251);
#228=AXIS2_PLACEMENT_3D('',#252,#253,#254);
#229=AXIS2_PLACEMENT_3D('',#255,#256,#257);
#231=AXIS2_PLACEMENT_3D('',#258,#259,#260);
#232=AXIS2_PLACEMENT_3D('',#261,#262,#263);
#235=COLOUR_RGB('',0.717647075653076,0.811749458312988,0.764705896377563);
#236=DIRECTION('',(1.17145536458252E-015,0.0,-1.0));
#237=CARTESIAN_POINT('',(18.4482702479,18.5,3.0));
#238=DIRECTION('',(-1.17145536458252E-015,0.0,1.0));
#239=DIRECTION('',(0.0,1.0,0.0));
#240=DIRECTION('',(-1.17145536458252E-015,0.0,1.0));
#241=CARTESIAN_POINT('',(18.4482702479,18.5,0.0));
#242=DIRECTION('',(-1.17145536458252E-015,0.0,1.0));
#243=DIRECTION('',(0.0,1.0,0.0));
#244=DIRECTION('',(-1.17145536458252E-015,-0.0,1.0));
#245=CARTESIAN_POINT('',(18.4482702479,18.5,0.0));
#246=DIRECTION('',(-1.17145536458252E-015,0.0,1.0));
#247=DIRECTION('',(0.0,1.0,0.0));
#248=DIRECTION('',(1.17145536458252E-015,0.0,-1.0));
#249=CARTESIAN_POINT('',(18.4482702479,18.5,3.0));
#250=DIRECTION('',(-1.17145536458252E-015,0.0,1.0));
#251=DIRECTION('',(0.0,1.0,0.0));
#252=CARTESIAN_POINT('',(18.4482702479,18.5,3.0));
#253=DIRECTION('',(-1.17145536458252E-015,0.0,1.0));
#254=DIRECTION('',(0.0,1.0,0.0));
#255=CARTESIAN_POINT('',(18.4482702479,18.5,0.0));
#256=DIRECTION('',(-1.17145536458252E-015,0.0,1.0));
#257=DIRECTION('',(0.0,1.0,0.0));
#258=CARTESIAN_POINT('',(18.4482702479,18.5,0.0));
#259=DIRECTION('',(-1.17145536458252E-015,0.0,1.0));
#260=DIRECTION('',(0.0,1.0,0.0));
#261=CARTESIAN_POINT('',(18.4482702479,18.5,3.0));
#262=DIRECTION('',(-1.17145536458252E-015,0.0,1.0));
#263=DIRECTION('',(0.0,1.0,0.0));
#264=PRESENTATION_LAYER_ASSIGNMENT('1','Layer 1',(#43));
ENDSEC;
END-ISO-10303-21;

