ISO-10303-21;
HEADER;
FILE_DESCRIPTION(('STEP AP214'),'1');
FILE_NAME('cctmp_1BCC225C-AEAF-4942-9243-D5D2C90B3EC7_2023_03_29_09_44_38_0785..stp','2023-03-29T07:44:38',('SIEMENS A&D'),('CADClick - www.CADClick.com'),'Spatial InterOp 3D postprocessed',' ','unknown authorization');
FILE_SCHEMA(('AUTOMOTIVE_DESIGN'));
ENDSEC;
DATA;
#1=MECHANICAL_DESIGN_GEOMETRIC_PRESENTATION_REPRESENTATION(' ',(#10,#11,#12,#13,#14,#15,#16,#17,#18),#6);
#2=PRODUCT_DEFINITION_CONTEXT('',#19,'design');
#3=APPLICATION_PROTOCOL_DEFINITION('INTERNATIONAL STANDARD','automotive_design',1994,#19);
#4=PRODUCT_CATEGORY_RELATIONSHIP('NONE','NONE',#20,#21);
#5=SHAPE_DEFINITION_REPRESENTATION(#22,#23);
#6= (GEOMETRIC_REPRESENTATION_CONTEXT(3)GLOBAL_UNCERTAINTY_ASSIGNED_CONTEXT((#26))GLOBAL_UNIT_ASSIGNED_CONTEXT((#28,#29,#30))REPRESENTATION_CONTEXT('NONE','WORKSPACE'));
#10=STYLED_ITEM('',(#32),#33);
#11=STYLED_ITEM('',(#34),#35);
#12=STYLED_ITEM('',(#36),#37);
#13=STYLED_ITEM('',(#38),#39);
#14=STYLED_ITEM('',(#40),#41);
#15=STYLED_ITEM('',(#42),#43);
#16=STYLED_ITEM('',(#44),#45);
#17=STYLED_ITEM('',(#46),#47);
#18=STYLED_ITEM('',(#48),#49);
#19=APPLICATION_CONTEXT(' ');
#20=PRODUCT_CATEGORY('part','NONE');
#21=PRODUCT_RELATED_PRODUCT_CATEGORY('detail',' ',(#50));
#22=PRODUCT_DEFINITION_SHAPE('NONE','NONE',#51);
#23=ADVANCED_BREP_SHAPE_REPRESENTATION('2023_03_29_09_44_38_0782',(#49,#52),#6);
#26=UNCERTAINTY_MEASURE_WITH_UNIT(LENGTH_MEASURE(1.0E-006),#28,'','');
#28= (CONVERSION_BASED_UNIT('MILLIMETRE',#55)LENGTH_UNIT()NAMED_UNIT(#58));
#29= (NAMED_UNIT(#60)PLANE_ANGLE_UNIT()SI_UNIT($,.RADIAN.));
#30= (NAMED_UNIT(#60)SOLID_ANGLE_UNIT()SI_UNIT($,.STERADIAN.));
#32=PRESENTATION_STYLE_ASSIGNMENT((#66));
#33=ADVANCED_FACE('',(#67),#68,.T.);
#34=PRESENTATION_STYLE_ASSIGNMENT((#69));
#35=ADVANCED_FACE('',(#70),#71,.F.);
#36=PRESENTATION_STYLE_ASSIGNMENT((#72));
#37=ADVANCED_FACE('',(#73),#74,.F.);
#38=PRESENTATION_STYLE_ASSIGNMENT((#75));
#39=ADVANCED_FACE('',(#76),#77,.T.);
#40=PRESENTATION_STYLE_ASSIGNMENT((#78));
#41=ADVANCED_FACE('',(#79),#80,.T.);
#42=PRESENTATION_STYLE_ASSIGNMENT((#81));
#43=ADVANCED_FACE('',(#82),#83,.F.);
#44=PRESENTATION_STYLE_ASSIGNMENT((#84));
#45=ADVANCED_FACE('',(#85),#86,.F.);
#46=PRESENTATION_STYLE_ASSIGNMENT((#87));
#47=ADVANCED_FACE('',(#88),#89,.T.);
#48=PRESENTATION_STYLE_ASSIGNMENT((#90));
#49=MANIFOLD_SOLID_BREP('2023_03_29_09_44_38_0782',#91);
#50=PRODUCT('2023_03_29_09_44_38_0782','','PART--DESC',(#92));
#51=PRODUCT_DEFINITION('','NONE',#93,#2);
#52=AXIS2_PLACEMENT_3D('',#94,#95,#96);
#55=LENGTH_MEASURE_WITH_UNIT(LENGTH_MEASURE(1.0),#97);
#58=DIMENSIONAL_EXPONENTS(1.0,0.0,0.0,0.0,0.0,0.0,0.0);
#60=DIMENSIONAL_EXPONENTS(0.0,0.0,0.0,0.0,0.0,0.0,0.0);
#66=SURFACE_STYLE_USAGE(.BOTH.,#98);
#67=FACE_OUTER_BOUND('',#99,.T.);
#68=CONICAL_SURFACE('',#100,11.6391300955591,0.111535183946414);
#69=SURFACE_STYLE_USAGE(.BOTH.,#98);
#70=FACE_OUTER_BOUND('',#102,.T.);
#71=CONICAL_SURFACE('',#103,8.375,1.45926114105359);
#72=SURFACE_STYLE_USAGE(.BOTH.,#98);
#73=FACE_OUTER_BOUND('',#105,.T.);
#74=CONICAL_SURFACE('',#106,5.38913009555915,0.111535183946414);
#75=SURFACE_STYLE_USAGE(.BOTH.,#98);
#76=FACE_OUTER_BOUND('',#108,.T.);
#77=CONICAL_SURFACE('',#109,8.6532601911183,1.45926114105359);
#78=SURFACE_STYLE_USAGE(.BOTH.,#98);
#79=FACE_OUTER_BOUND('',#111,.T.);
#80=CONICAL_SURFACE('',#112,8.6532601911183,1.45926114105359);
#81=SURFACE_STYLE_USAGE(.BOTH.,#98);
#82=FACE_OUTER_BOUND('',#114,.T.);
#83=CONICAL_SURFACE('',#115,5.38913009555915,0.111535183946414);
#84=SURFACE_STYLE_USAGE(.BOTH.,#98);
#85=FACE_OUTER_BOUND('',#117,.T.);
#86=CONICAL_SURFACE('',#118,8.375,1.45926114105359);
#87=SURFACE_STYLE_USAGE(.BOTH.,#98);
#88=FACE_OUTER_BOUND('',#120,.T.);
#89=CONICAL_SURFACE('',#121,11.6391300955591,0.111535183946414);
#90=SURFACE_STYLE_USAGE(.BOTH.,#122);
#91=CLOSED_SHELL('',(#33,#35,#37,#39,#41,#43,#45,#47));
#92=PRODUCT_CONTEXT('',#19,'mechanical');
#93=PRODUCT_DEFINITION_FORMATION_WITH_SPECIFIED_SOURCE(' ','NONE',#50,.NOT_KNOWN.);
#94=CARTESIAN_POINT('',(0.0,0.0,0.0));
#95=DIRECTION('',(0.0,0.0,1.0));
#96=DIRECTION('',(1.0,0.0,0.0));
#97= (NAMED_UNIT(#58)LENGTH_UNIT()SI_UNIT(.MILLI.,.METRE.));
#98=SURFACE_SIDE_STYLE('',(#124));
#99=EDGE_LOOP('',(#125,#126,#127,#128));
#100=AXIS2_PLACEMENT_3D('',#129,#130,#131);
#102=EDGE_LOOP('',(#133,#134,#135,#136));
#103=AXIS2_PLACEMENT_3D('',#137,#138,#139);
#105=EDGE_LOOP('',(#141,#142,#143,#144));
#106=AXIS2_PLACEMENT_3D('',#145,#146,#147);
#108=EDGE_LOOP('',(#149,#150,#151,#152));
#109=AXIS2_PLACEMENT_3D('',#153,#154,#155);
#111=EDGE_LOOP('',(#157,#158,#159,#160));
#112=AXIS2_PLACEMENT_3D('',#161,#162,#163);
#114=EDGE_LOOP('',(#165,#166,#167,#168));
#115=AXIS2_PLACEMENT_3D('',#169,#170,#171);
#117=EDGE_LOOP('',(#173,#174,#175,#176));
#118=AXIS2_PLACEMENT_3D('',#177,#178,#179);
#120=EDGE_LOOP('',(#181,#182,#183,#184));
#121=AXIS2_PLACEMENT_3D('',#185,#186,#187);
#122=SURFACE_SIDE_STYLE('',(#188));
#124=SURFACE_STYLE_FILL_AREA(#189);
#125=ORIENTED_EDGE('',*,*,#190,.F.);
#126=ORIENTED_EDGE('',*,*,#191,.F.);
#127=ORIENTED_EDGE('',*,*,#192,.F.);
#128=ORIENTED_EDGE('',*,*,#193,.T.);
#129=CARTESIAN_POINT('',(11.7453257868,11.7782601911362,1.2422329961));
#130=DIRECTION('',(-6.12303176911189E-017,3.25683856356718E-015,1.0));
#131=DIRECTION('',(4.94570575569676E-032,1.0,-3.25683856356718E-015));
#133=ORIENTED_EDGE('',*,*,#195,.F.);
#134=ORIENTED_EDGE('',*,*,#196,.T.);
#135=ORIENTED_EDGE('',*,*,#197,.F.);
#136=ORIENTED_EDGE('',*,*,#198,.F.);
#137=CARTESIAN_POINT('',(11.7453257868,11.7782601911362,0.35000000003618));
#138=DIRECTION('',(6.12303176911189E-017,-3.49409506929476E-015,-1.0));
#139=DIRECTION('',(-1.77789160628704E-034,1.0,-3.49409506929476E-015));
#141=ORIENTED_EDGE('',*,*,#200,.F.);
#142=ORIENTED_EDGE('',*,*,#201,.F.);
#143=ORIENTED_EDGE('',*,*,#202,.F.);
#144=ORIENTED_EDGE('',*,*,#203,.T.);
#145=CARTESIAN_POINT('',(11.7453257868,11.7782601911362,1.9422329961));
#146=DIRECTION('',(-6.12303176911189E-017,3.14207609153687E-015,1.0));
#147=DIRECTION('',(-1.42530372090193E-032,1.0,-3.14207609153687E-015));
#149=ORIENTED_EDGE('',*,*,#205,.F.);
#150=ORIENTED_EDGE('',*,*,#206,.T.);
#151=ORIENTED_EDGE('',*,*,#207,.F.);
#152=ORIENTED_EDGE('',*,*,#208,.F.);
#153=CARTESIAN_POINT('',(11.7453257868,11.7782601911362,2.83446599216382));
#154=DIRECTION('',(6.12303176911189E-017,-3.51228029185645E-015,-1.0));
#155=DIRECTION('',(6.3874154724597E-034,1.0,-3.51228029185645E-015));
#157=ORIENTED_EDGE('',*,*,#205,.T.);
#158=ORIENTED_EDGE('',*,*,#193,.F.);
#159=ORIENTED_EDGE('',*,*,#207,.T.);
#160=ORIENTED_EDGE('',*,*,#201,.T.);
#161=CARTESIAN_POINT('',(11.7453257868,11.7782601911362,2.83446599216382));
#162=DIRECTION('',(6.12303176911189E-017,-3.51228029185645E-015,-1.0));
#163=DIRECTION('',(6.3874154724597E-034,1.0,-3.51228029185645E-015));
#165=ORIENTED_EDGE('',*,*,#200,.T.);
#166=ORIENTED_EDGE('',*,*,#198,.T.);
#167=ORIENTED_EDGE('',*,*,#202,.T.);
#168=ORIENTED_EDGE('',*,*,#206,.F.);
#169=CARTESIAN_POINT('',(11.7453257868,11.7782601911362,1.9422329961));
#170=DIRECTION('',(-6.12303176911189E-017,3.14207609153687E-015,1.0));
#171=DIRECTION('',(-1.42530372090193E-032,1.0,-3.14207609153687E-015));
#173=ORIENTED_EDGE('',*,*,#195,.T.);
#174=ORIENTED_EDGE('',*,*,#203,.F.);
#175=ORIENTED_EDGE('',*,*,#197,.T.);
#176=ORIENTED_EDGE('',*,*,#191,.T.);
#177=CARTESIAN_POINT('',(11.7453257868,11.7782601911362,0.35000000003618));
#178=DIRECTION('',(6.12303176911189E-017,-3.49409506929476E-015,-1.0));
#179=DIRECTION('',(-1.77789160628704E-034,1.0,-3.49409506929476E-015));
#181=ORIENTED_EDGE('',*,*,#190,.T.);
#182=ORIENTED_EDGE('',*,*,#208,.T.);
#183=ORIENTED_EDGE('',*,*,#192,.T.);
#184=ORIENTED_EDGE('',*,*,#196,.F.);
#185=CARTESIAN_POINT('',(11.7453257868,11.7782601911362,1.2422329961));
#186=DIRECTION('',(-6.12303176911189E-017,3.25683856356718E-015,1.0));
#187=DIRECTION('',(4.94570575569676E-032,1.0,-3.25683856356718E-015));
#188=SURFACE_STYLE_FILL_AREA(#213);
#189=FILL_AREA_STYLE('',(#214));
#190=EDGE_CURVE('',#215,#216,#217,.T.);
#191=EDGE_CURVE('',#218,#215,#219,.T.);
#192=EDGE_CURVE('',#220,#218,#221,.T.);
#193=EDGE_CURVE('',#220,#216,#222,.T.);
#195=EDGE_CURVE('',#215,#224,#225,.T.);
#196=EDGE_CURVE('',#215,#218,#226,.T.);
#197=EDGE_CURVE('',#227,#218,#228,.T.);
#198=EDGE_CURVE('',#224,#227,#229,.T.);
#200=EDGE_CURVE('',#231,#224,#232,.T.);
#201=EDGE_CURVE('',#233,#231,#234,.T.);
#202=EDGE_CURVE('',#227,#233,#235,.T.);
#203=EDGE_CURVE('',#227,#224,#236,.T.);
#205=EDGE_CURVE('',#231,#216,#238,.T.);
#206=EDGE_CURVE('',#231,#233,#239,.T.);
#207=EDGE_CURVE('',#220,#233,#240,.T.);
#208=EDGE_CURVE('',#216,#220,#241,.T.);
#213=FILL_AREA_STYLE('',(#246));
#214=FILL_AREA_STYLE_COLOUR('',#247);
#215=VERTEX_POINT('',#248);
#216=VERTEX_POINT('',#249);
#217=LINE('',#250,#251);
#218=VERTEX_POINT('',#252);
#219=CIRCLE('',#253,11.5);
#220=VERTEX_POINT('',#254);
#221=LINE('',#255,#256);
#222=CIRCLE('',#257,11.7782601911183);
#224=VERTEX_POINT('',#259);
#225=LINE('',#260,#261);
#226=CIRCLE('',#262,11.5);
#227=VERTEX_POINT('',#263);
#228=LINE('',#264,#265);
#229=CIRCLE('',#266,5.25);
#231=VERTEX_POINT('',#268);
#232=LINE('',#269,#270);
#233=VERTEX_POINT('',#271);
#234=CIRCLE('',#272,5.5282601911183);
#235=LINE('',#273,#274);
#236=CIRCLE('',#275,5.25);
#238=LINE('',#277,#278);
#239=CIRCLE('',#279,5.5282601911183);
#240=LINE('',#280,#281);
#241=CIRCLE('',#282,11.7782601911183);
#246=FILL_AREA_STYLE_COLOUR('',#287);
#247=COLOUR_RGB('',0.596078455448151,0.666666686534882,0.686274528503418);
#248=CARTESIAN_POINT('',(11.7453257868,23.2782601911362,3.61396156056681E-011));
#249=CARTESIAN_POINT('',(11.7453257868,23.5565203822545,2.48446599216378));
#250=CARTESIAN_POINT('',(11.7453257868,23.4173902866953,1.24223299609996));
#251=VECTOR('',#288,1.0);
#252=CARTESIAN_POINT('',(11.7453257868,0.27826019113617,3.62199159553711E-011));
#253=AXIS2_PLACEMENT_3D('',#289,#290,#291);
#254=CARTESIAN_POINT('',(11.7453257868,1.79003478706363E-011,2.48446599216387));
#255=CARTESIAN_POINT('',(11.7453257868,0.13913009557708,1.24223299610003));
#256=VECTOR('',#292,1.0);
#257=AXIS2_PLACEMENT_3D('',#293,#294,#295);
#259=CARTESIAN_POINT('',(11.7453257868,17.0282601911362,0.700000000036159));
#260=CARTESIAN_POINT('',(11.7453257868,20.1532601911362,0.350000000036151));
#261=VECTOR('',#296,1.0);
#262=AXIS2_PLACEMENT_3D('',#297,#298,#299);
#263=CARTESIAN_POINT('',(11.7453257868,6.52826019113617,0.700000000036195));
#264=CARTESIAN_POINT('',(11.7453257868,3.40326019113617,0.350000000036209));
#265=VECTOR('',#300,1.0);
#266=AXIS2_PLACEMENT_3D('',#301,#302,#303);
#268=CARTESIAN_POINT('',(11.7453257868,17.3065203822545,3.1844659921638));
#269=CARTESIAN_POINT('',(11.7453257868,17.1673902866953,1.94223299609998));
#270=VECTOR('',#304,1.0);
#271=CARTESIAN_POINT('',(11.7453257868,6.25000000001788,3.18446599216384));
#272=AXIS2_PLACEMENT_3D('',#305,#306,#307);
#273=CARTESIAN_POINT('',(11.7453257868,6.38913009557703,1.94223299610001));
#274=VECTOR('',#308,1.0);
#275=AXIS2_PLACEMENT_3D('',#309,#310,#311);
#277=CARTESIAN_POINT('',(11.7453257868,20.4315203822545,2.83446599216379));
#278=VECTOR('',#312,1.0);
#279=AXIS2_PLACEMENT_3D('',#313,#314,#315);
#280=CARTESIAN_POINT('',(11.7453257868,3.12500000001788,2.83446599216385));
#281=VECTOR('',#316,1.0);
#282=AXIS2_PLACEMENT_3D('',#317,#318,#319);
#287=COLOUR_RGB('',0.596063196659088,0.666666686534882,0.686259269714355);
#288=DIRECTION('',(-7.78370161125204E-017,0.111304076320667,0.993786396865244));
#289=CARTESIAN_POINT('',(11.7453257868,11.7782601911362,3.61799479264846E-011));
#290=DIRECTION('',(6.12303176911189E-017,-3.50715833186615E-015,-1.0));
#291=DIRECTION('',(-3.36015331066339E-047,-1.0,3.50715833186615E-015));
#292=DIRECTION('',(4.3862697481822E-017,0.11130407632066,-0.993786396865244));
#293=CARTESIAN_POINT('',(11.7453257868,11.7782601911362,2.48446599216382));
#294=DIRECTION('',(6.12303176911189E-017,-3.51635320640798E-015,-1.0));
#295=DIRECTION('',(0.0,-1.0,3.51635320640798E-015));
#296=DIRECTION('',(-2.17599573629173E-016,-0.993786396665465,0.111304078104406));
#297=CARTESIAN_POINT('',(11.7453257868,11.7782601911362,3.61799479264846E-011));
#298=DIRECTION('',(6.12303176911189E-017,-3.50715833186615E-015,-1.0));
#299=DIRECTION('',(-3.36015331066339E-047,-1.0,3.50715833186615E-015));
#300=DIRECTION('',(-2.03969205503873E-016,-0.993786396665466,-0.111304078104399));
#301=CARTESIAN_POINT('',(11.7453257868,11.7782601911362,0.700000000036177));
#302=DIRECTION('',(6.12303176911189E-017,-3.51074989185782E-015,-1.0));
#303=DIRECTION('',(0.0,-1.0,3.51074989185782E-015));
#304=DIRECTION('',(2.41619769873549E-017,-0.111304076320667,-0.993786396865244));
#305=CARTESIAN_POINT('',(11.7453257868,11.7782601911362,3.18446599216382));
#306=DIRECTION('',(6.12303176911189E-017,-3.53015929606441E-015,-1.0));
#307=DIRECTION('',(0.0,-1.0,3.53015929606441E-015));
#308=DIRECTION('',(-2.41619769873549E-017,-0.11130407632066,0.993786396865244));
#309=CARTESIAN_POINT('',(11.7453257868,11.7782601911362,0.700000000036177));
#310=DIRECTION('',(6.12303176911189E-017,-3.51074989185782E-015,-1.0));
#311=DIRECTION('',(0.0,-1.0,3.51074989185782E-015));
#312=DIRECTION('',(2.10821445706273E-016,0.993786396665465,-0.111304078104406));
#313=CARTESIAN_POINT('',(11.7453257868,11.7782601911362,3.18446599216382));
#314=DIRECTION('',(6.12303176911189E-017,-3.53015929606441E-015,-1.0));
#315=DIRECTION('',(0.0,-1.0,3.53015929606441E-015));
#316=DIRECTION('',(1.97191077580974E-016,0.993786396665466,0.111304078104399));
#317=CARTESIAN_POINT('',(11.7453257868,11.7782601911362,2.48446599216382));
#318=DIRECTION('',(6.12303176911189E-017,-3.51635320640798E-015,-1.0));
#319=DIRECTION('',(0.0,-1.0,3.51635320640798E-015));
#320=PRESENTATION_LAYER_ASSIGNMENT('1','Layer 1',(#49));
ENDSEC;
END-ISO-10303-21;

