ISO-10303-21;
HEADER;
FILE_DESCRIPTION(('STEP AP214'),'1');
FILE_NAME('cctmp_A52E2EA9-3842-4D40-8200-491407448131_2023_03_29_09_44_26_0606..stp','2023-03-29T07:44:26',('SIEMENS A&D'),('CADClick - www.CADClick.com'),'Spatial InterOp 3D postprocessed',' ','unknown authorization');
FILE_SCHEMA(('AUTOMOTIVE_DESIGN'));
ENDSEC;
DATA;
#1=MECHANICAL_DESIGN_GEOMETRIC_PRESENTATION_REPRESENTATION(' ',(#10,#11,#12,#13,#14,#15,#16,#17,#18,#19,#20,#21,#22),#6);
#2=PRODUCT_DEFINITION_CONTEXT('',#23,'design');
#3=APPLICATION_PROTOCOL_DEFINITION('INTERNATIONAL STANDARD','automotive_design',1994,#23);
#4=PRODUCT_CATEGORY_RELATIONSHIP('NONE','NONE',#24,#25);
#5=SHAPE_DEFINITION_REPRESENTATION(#26,#27);
#6= (GEOMETRIC_REPRESENTATION_CONTEXT(3)GLOBAL_UNCERTAINTY_ASSIGNED_CONTEXT((#30))GLOBAL_UNIT_ASSIGNED_CONTEXT((#32,#33,#34))REPRESENTATION_CONTEXT('NONE','WORKSPACE'));
#10=STYLED_ITEM('',(#36),#37);
#11=STYLED_ITEM('',(#38),#39);
#12=STYLED_ITEM('',(#40),#41);
#13=STYLED_ITEM('',(#42),#43);
#14=STYLED_ITEM('',(#44),#45);
#15=STYLED_ITEM('',(#46),#47);
#16=STYLED_ITEM('',(#48),#49);
#17=STYLED_ITEM('',(#50),#51);
#18=STYLED_ITEM('',(#52),#53);
#19=STYLED_ITEM('',(#54),#55);
#20=STYLED_ITEM('',(#56),#57);
#21=STYLED_ITEM('',(#58),#59);
#22=STYLED_ITEM('',(#60),#61);
#23=APPLICATION_CONTEXT(' ');
#24=PRODUCT_CATEGORY('part','NONE');
#25=PRODUCT_RELATED_PRODUCT_CATEGORY('detail',' ',(#62));
#26=PRODUCT_DEFINITION_SHAPE('NONE','NONE',#63);
#27=ADVANCED_BREP_SHAPE_REPRESENTATION('2023_03_29_09_44_26_0602',(#61,#64),#6);
#30=UNCERTAINTY_MEASURE_WITH_UNIT(LENGTH_MEASURE(1.0E-006),#32,'','');
#32= (CONVERSION_BASED_UNIT('MILLIMETRE',#67)LENGTH_UNIT()NAMED_UNIT(#70));
#33= (NAMED_UNIT(#72)PLANE_ANGLE_UNIT()SI_UNIT($,.RADIAN.));
#34= (NAMED_UNIT(#72)SOLID_ANGLE_UNIT()SI_UNIT($,.STERADIAN.));
#36=PRESENTATION_STYLE_ASSIGNMENT((#78));
#37=ADVANCED_FACE('',(#79),#80,.T.);
#38=PRESENTATION_STYLE_ASSIGNMENT((#81));
#39=ADVANCED_FACE('',(#82),#83,.F.);
#40=PRESENTATION_STYLE_ASSIGNMENT((#84));
#41=ADVANCED_FACE('',(#85),#86,.T.);
#42=PRESENTATION_STYLE_ASSIGNMENT((#87));
#43=ADVANCED_FACE('',(#88),#89,.T.);
#44=PRESENTATION_STYLE_ASSIGNMENT((#90));
#45=ADVANCED_FACE('',(#91),#92,.T.);
#46=PRESENTATION_STYLE_ASSIGNMENT((#93));
#47=ADVANCED_FACE('',(#94),#95,.F.);
#48=PRESENTATION_STYLE_ASSIGNMENT((#96));
#49=ADVANCED_FACE('',(#97),#98,.T.);
#50=PRESENTATION_STYLE_ASSIGNMENT((#99));
#51=ADVANCED_FACE('',(#100),#101,.F.);
#52=PRESENTATION_STYLE_ASSIGNMENT((#102));
#53=ADVANCED_FACE('',(#103),#104,.T.);
#54=PRESENTATION_STYLE_ASSIGNMENT((#105));
#55=ADVANCED_FACE('',(#106),#107,.F.);
#56=PRESENTATION_STYLE_ASSIGNMENT((#108));
#57=ADVANCED_FACE('',(#109),#110,.T.);
#58=PRESENTATION_STYLE_ASSIGNMENT((#111));
#59=ADVANCED_FACE('',(#112),#113,.T.);
#60=PRESENTATION_STYLE_ASSIGNMENT((#114));
#61=MANIFOLD_SOLID_BREP('2023_03_29_09_44_26_0602',#115);
#62=PRODUCT('2023_03_29_09_44_26_0602','','PART--DESC',(#116));
#63=PRODUCT_DEFINITION('','NONE',#117,#2);
#64=AXIS2_PLACEMENT_3D('',#118,#119,#120);
#67=LENGTH_MEASURE_WITH_UNIT(LENGTH_MEASURE(1.0),#121);
#70=DIMENSIONAL_EXPONENTS(1.0,0.0,0.0,0.0,0.0,0.0,0.0);
#72=DIMENSIONAL_EXPONENTS(0.0,0.0,0.0,0.0,0.0,0.0,0.0);
#78=SURFACE_STYLE_USAGE(.BOTH.,#122);
#79=FACE_OUTER_BOUND('',#123,.T.);
#80=TOROIDAL_SURFACE('',#124,9.1,1.0);
#81=SURFACE_STYLE_USAGE(.BOTH.,#122);
#82=FACE_OUTER_BOUND('',#126,.T.);
#83=CYLINDRICAL_SURFACE('',#127,8.1);
#84=SURFACE_STYLE_USAGE(.BOTH.,#122);
#85=FACE_OUTER_BOUND('',#129,.T.);
#86=TOROIDAL_SURFACE('',#130,9.1,1.0);
#87=SURFACE_STYLE_USAGE(.BOTH.,#122);
#88=FACE_OUTER_BOUND('',#132,.T.);
#89=CYLINDRICAL_SURFACE('',#133,15.0);
#90=SURFACE_STYLE_USAGE(.BOTH.,#122);
#91=FACE_OUTER_BOUND('',#135,.T.);
#92=CYLINDRICAL_SURFACE('',#136,15.0);
#93=SURFACE_STYLE_USAGE(.BOTH.,#122);
#94=FACE_OUTER_BOUND('',#138,.T.);
#95=PLANE('',#139);
#96=SURFACE_STYLE_USAGE(.BOTH.,#122);
#97=FACE_OUTER_BOUND('',#141,.T.);
#98=TOROIDAL_SURFACE('',#142,9.1,1.0);
#99=SURFACE_STYLE_USAGE(.BOTH.,#122);
#100=FACE_OUTER_BOUND('',#144,.T.);
#101=CYLINDRICAL_SURFACE('',#145,8.1);
#102=SURFACE_STYLE_USAGE(.BOTH.,#122);
#103=FACE_OUTER_BOUND('',#147,.T.);
#104=TOROIDAL_SURFACE('',#148,9.1,1.0);
#105=SURFACE_STYLE_USAGE(.BOTH.,#122);
#106=FACE_OUTER_BOUND('',#150,.T.);
#107=PLANE('',#151);
#108=SURFACE_STYLE_USAGE(.BOTH.,#122);
#109=FACE_OUTER_BOUND('',#153,.T.);
#110=PLANE('',#154);
#111=SURFACE_STYLE_USAGE(.BOTH.,#122);
#112=FACE_OUTER_BOUND('',#156,.T.);
#113=PLANE('',#157);
#114=SURFACE_STYLE_USAGE(.BOTH.,#158);
#115=CLOSED_SHELL('',(#37,#39,#41,#43,#45,#47,#49,#51,#53,#55,#57,#59));
#116=PRODUCT_CONTEXT('',#23,'mechanical');
#117=PRODUCT_DEFINITION_FORMATION_WITH_SPECIFIED_SOURCE(' ','NONE',#62,.NOT_KNOWN.);
#118=CARTESIAN_POINT('',(0.0,0.0,0.0));
#119=DIRECTION('',(0.0,0.0,1.0));
#120=DIRECTION('',(1.0,0.0,0.0));
#121= (NAMED_UNIT(#70)LENGTH_UNIT()SI_UNIT(.MILLI.,.METRE.));
#122=SURFACE_SIDE_STYLE('',(#160));
#123=EDGE_LOOP('',(#161,#162,#163,#164));
#124=AXIS2_PLACEMENT_3D('',#165,#166,#167);
#126=EDGE_LOOP('',(#169,#170,#171,#172));
#127=AXIS2_PLACEMENT_3D('',#173,#174,#175);
#129=EDGE_LOOP('',(#177,#178,#179,#180));
#130=AXIS2_PLACEMENT_3D('',#181,#182,#183);
#132=EDGE_LOOP('',(#185,#186,#187,#188));
#133=AXIS2_PLACEMENT_3D('',#189,#190,#191);
#135=EDGE_LOOP('',(#193,#194,#195,#196));
#136=AXIS2_PLACEMENT_3D('',#197,#198,#199);
#138=EDGE_LOOP('',(#201,#202,#203,#204,#205,#206));
#139=AXIS2_PLACEMENT_3D('',#207,#208,#209);
#141=EDGE_LOOP('',(#211,#212,#213,#214));
#142=AXIS2_PLACEMENT_3D('',#215,#216,#217);
#144=EDGE_LOOP('',(#219,#220,#221,#222));
#145=AXIS2_PLACEMENT_3D('',#223,#224,#225);
#147=EDGE_LOOP('',(#227,#228,#229,#230));
#148=AXIS2_PLACEMENT_3D('',#231,#232,#233);
#150=EDGE_LOOP('',(#235,#236,#237,#238,#239,#240));
#151=AXIS2_PLACEMENT_3D('',#241,#242,#243);
#153=EDGE_LOOP('',(#245,#246,#247,#248,#249,#250));
#154=AXIS2_PLACEMENT_3D('',#251,#252,#253);
#156=EDGE_LOOP('',(#255,#256,#257,#258,#259,#260));
#157=AXIS2_PLACEMENT_3D('',#261,#262,#263);
#158=SURFACE_SIDE_STYLE('',(#264));
#160=SURFACE_STYLE_FILL_AREA(#265);
#161=ORIENTED_EDGE('',*,*,#266,.F.);
#162=ORIENTED_EDGE('',*,*,#267,.T.);
#163=ORIENTED_EDGE('',*,*,#268,.T.);
#164=ORIENTED_EDGE('',*,*,#269,.F.);
#165=CARTESIAN_POINT('',(14.9999999999983,14.9760960384017,0.999999999999999));
#166=DIRECTION('',(-1.17142140665822E-015,-3.51436609374757E-015,-1.0));
#167=DIRECTION('',(-1.0,6.93086504497935E-046,1.17142140665822E-015));
#169=ORIENTED_EDGE('',*,*,#271,.F.);
#170=ORIENTED_EDGE('',*,*,#269,.T.);
#171=ORIENTED_EDGE('',*,*,#272,.F.);
#172=ORIENTED_EDGE('',*,*,#273,.F.);
#173=CARTESIAN_POINT('',(14.9999999999983,14.9760960384016,-32.825));
#174=DIRECTION('',(8.56653568383608E-016,3.51436609374757E-015,1.0));
#175=DIRECTION('',(-1.0,0.0,8.56653568383608E-016));
#177=ORIENTED_EDGE('',*,*,#275,.F.);
#178=ORIENTED_EDGE('',*,*,#273,.T.);
#179=ORIENTED_EDGE('',*,*,#276,.T.);
#180=ORIENTED_EDGE('',*,*,#277,.F.);
#181=CARTESIAN_POINT('',(14.9999999999983,14.9760960384017,1.1));
#182=DIRECTION('',(-1.17142140665822E-015,-3.51436609374757E-015,-1.0));
#183=DIRECTION('',(-1.0,6.93086504497935E-046,1.17142140665822E-015));
#185=ORIENTED_EDGE('',*,*,#279,.F.);
#186=ORIENTED_EDGE('',*,*,#280,.T.);
#187=ORIENTED_EDGE('',*,*,#281,.F.);
#188=ORIENTED_EDGE('',*,*,#282,.F.);
#189=CARTESIAN_POINT('',(14.9999999999983,14.9760960384016,-32.825));
#190=DIRECTION('',(1.38777878078145E-015,3.51436609374757E-015,1.0));
#191=DIRECTION('',(-1.0,0.0,1.38777878078145E-015));
#193=ORIENTED_EDGE('',*,*,#279,.T.);
#194=ORIENTED_EDGE('',*,*,#284,.F.);
#195=ORIENTED_EDGE('',*,*,#285,.F.);
#196=ORIENTED_EDGE('',*,*,#286,.T.);
#197=CARTESIAN_POINT('',(14.9999999999983,14.9760960384016,-32.825));
#198=DIRECTION('',(1.38777878078145E-015,3.51436609374757E-015,1.0));
#199=DIRECTION('',(-1.0,0.0,1.38777878078145E-015));
#201=ORIENTED_EDGE('',*,*,#288,.T.);
#202=ORIENTED_EDGE('',*,*,#289,.T.);
#203=ORIENTED_EDGE('',*,*,#277,.T.);
#204=ORIENTED_EDGE('',*,*,#290,.T.);
#205=ORIENTED_EDGE('',*,*,#280,.F.);
#206=ORIENTED_EDGE('',*,*,#286,.F.);
#207=CARTESIAN_POINT('',(14.9999999999983,5.87609603840172,2.10000000000003));
#208=DIRECTION('',(4.11692301362751E-030,-3.51436609374757E-015,-1.0));
#209=DIRECTION('',(1.0,1.17145536458252E-015,0.0));
#211=ORIENTED_EDGE('',*,*,#275,.T.);
#212=ORIENTED_EDGE('',*,*,#289,.F.);
#213=ORIENTED_EDGE('',*,*,#292,.T.);
#214=ORIENTED_EDGE('',*,*,#293,.T.);
#215=CARTESIAN_POINT('',(14.9999999999983,14.9760960384017,1.1));
#216=DIRECTION('',(-1.17142140665822E-015,-3.51436609374757E-015,-1.0));
#217=DIRECTION('',(-1.0,6.93086504497935E-046,1.17142140665822E-015));
#219=ORIENTED_EDGE('',*,*,#271,.T.);
#220=ORIENTED_EDGE('',*,*,#293,.F.);
#221=ORIENTED_EDGE('',*,*,#295,.F.);
#222=ORIENTED_EDGE('',*,*,#296,.T.);
#223=CARTESIAN_POINT('',(14.9999999999983,14.9760960384016,-32.825));
#224=DIRECTION('',(8.56653568383608E-016,3.51436609374757E-015,1.0));
#225=DIRECTION('',(-1.0,0.0,8.56653568383608E-016));
#227=ORIENTED_EDGE('',*,*,#266,.T.);
#228=ORIENTED_EDGE('',*,*,#296,.F.);
#229=ORIENTED_EDGE('',*,*,#298,.T.);
#230=ORIENTED_EDGE('',*,*,#299,.T.);
#231=CARTESIAN_POINT('',(14.9999999999983,14.9760960384017,0.999999999999999));
#232=DIRECTION('',(-1.17142140665822E-015,-3.51436609374757E-015,-1.0));
#233=DIRECTION('',(-1.0,6.93086504497935E-046,1.17142140665822E-015));
#235=ORIENTED_EDGE('',*,*,#301,.F.);
#236=ORIENTED_EDGE('',*,*,#284,.T.);
#237=ORIENTED_EDGE('',*,*,#282,.T.);
#238=ORIENTED_EDGE('',*,*,#302,.F.);
#239=ORIENTED_EDGE('',*,*,#267,.F.);
#240=ORIENTED_EDGE('',*,*,#299,.F.);
#241=CARTESIAN_POINT('',(14.9999999999983,-0.0239039615983003,4.9960036108132E-014));
#242=DIRECTION('',(1.17145536458252E-015,3.51436609374757E-015,1.0));
#243=DIRECTION('',(-1.0,0.0,1.17145536458252E-015));
#245=ORIENTED_EDGE('',*,*,#281,.T.);
#246=ORIENTED_EDGE('',*,*,#290,.F.);
#247=ORIENTED_EDGE('',*,*,#276,.F.);
#248=ORIENTED_EDGE('',*,*,#272,.T.);
#249=ORIENTED_EDGE('',*,*,#268,.F.);
#250=ORIENTED_EDGE('',*,*,#302,.T.);
#251=CARTESIAN_POINT('',(14.9999999999983,15.5010960384017,0.0));
#252=DIRECTION('',(0.0,-1.0,3.51436609374757E-015));
#253=DIRECTION('',(0.0,3.51436609374757E-015,1.0));
#255=ORIENTED_EDGE('',*,*,#285,.T.);
#256=ORIENTED_EDGE('',*,*,#301,.T.);
#257=ORIENTED_EDGE('',*,*,#298,.F.);
#258=ORIENTED_EDGE('',*,*,#295,.T.);
#259=ORIENTED_EDGE('',*,*,#292,.F.);
#260=ORIENTED_EDGE('',*,*,#288,.F.);
#261=CARTESIAN_POINT('',(30.2999999999983,14.4510960384017,-9.99200722162641E-015));
#262=DIRECTION('',(0.0,1.0,-3.51436609374757E-015));
#263=DIRECTION('',(1.0,0.0,0.0));
#264=SURFACE_STYLE_FILL_AREA(#305);
#265=FILL_AREA_STYLE('',(#306));
#266=EDGE_CURVE('',#307,#308,#309,.T.);
#267=EDGE_CURVE('',#307,#310,#311,.T.);
#268=EDGE_CURVE('',#310,#312,#313,.T.);
#269=EDGE_CURVE('',#308,#312,#314,.T.);
#271=EDGE_CURVE('',#308,#316,#317,.T.);
#272=EDGE_CURVE('',#318,#312,#319,.T.);
#273=EDGE_CURVE('',#316,#318,#320,.T.);
#275=EDGE_CURVE('',#316,#322,#323,.T.);
#276=EDGE_CURVE('',#318,#324,#325,.T.);
#277=EDGE_CURVE('',#322,#324,#326,.T.);
#279=EDGE_CURVE('',#328,#329,#330,.T.);
#280=EDGE_CURVE('',#328,#331,#332,.T.);
#281=EDGE_CURVE('',#333,#331,#334,.T.);
#282=EDGE_CURVE('',#329,#333,#335,.T.);
#284=EDGE_CURVE('',#337,#329,#338,.T.);
#285=EDGE_CURVE('',#339,#337,#340,.T.);
#286=EDGE_CURVE('',#339,#328,#341,.T.);
#288=EDGE_CURVE('',#339,#343,#344,.T.);
#289=EDGE_CURVE('',#343,#322,#345,.T.);
#290=EDGE_CURVE('',#324,#331,#346,.T.);
#292=EDGE_CURVE('',#343,#348,#349,.T.);
#293=EDGE_CURVE('',#348,#316,#350,.T.);
#295=EDGE_CURVE('',#352,#348,#353,.T.);
#296=EDGE_CURVE('',#352,#308,#354,.T.);
#298=EDGE_CURVE('',#352,#356,#357,.T.);
#299=EDGE_CURVE('',#356,#307,#358,.T.);
#301=EDGE_CURVE('',#337,#356,#360,.T.);
#302=EDGE_CURVE('',#310,#333,#361,.T.);
#305=FILL_AREA_STYLE('',(#364));
#306=FILL_AREA_STYLE_COLOUR('',#365);
#307=VERTEX_POINT('',#366);
#308=VERTEX_POINT('',#367);
#309=CIRCLE('',#368,1.0);
#310=VERTEX_POINT('',#369);
#311=CIRCLE('',#370,9.1);
#312=VERTEX_POINT('',#371);
#313=B_SPLINE_CURVE_WITH_KNOTS('',3,(#372,#373,#374,#375,#376,#377,#378,#379,#380,#381,#382,#383,#384,#385,#386,#387),.UNSPECIFIED.,.F.,.F.,(4,3,3,3,3,4),(0.0,0.215422509921392,0.430852440715964,0.646156053675733,0.861085339287711,1.0),.UNSPECIFIED.);
#314=CIRCLE('',#388,8.1);
#316=VERTEX_POINT('',#390);
#317=LINE('',#391,#392);
#318=VERTEX_POINT('',#393);
#319=LINE('',#394,#395);
#320=CIRCLE('',#396,8.1);
#322=VERTEX_POINT('',#398);
#323=CIRCLE('',#399,1.0);
#324=VERTEX_POINT('',#400);
#325=B_SPLINE_CURVE_WITH_KNOTS('',3,(#401,#402,#403,#404,#405,#406,#407,#408,#409,#410,#411,#412,#413,#414,#415,#416),.UNSPECIFIED.,.F.,.F.,(4,3,3,3,3,4),(0.0,0.214418250240083,0.42882285913506,0.64344292193779,0.858485400153523,1.0),.UNSPECIFIED.);
#326=CIRCLE('',#417,9.1);
#328=VERTEX_POINT('',#419);
#329=VERTEX_POINT('',#420);
#330=LINE('',#421,#422);
#331=VERTEX_POINT('',#423);
#332=CIRCLE('',#424,15.0);
#333=VERTEX_POINT('',#425);
#334=LINE('',#426,#427);
#335=CIRCLE('',#428,15.0);
#337=VERTEX_POINT('',#430);
#338=CIRCLE('',#431,15.0);
#339=VERTEX_POINT('',#432);
#340=LINE('',#433,#434);
#341=CIRCLE('',#435,15.0);
#343=VERTEX_POINT('',#437);
#344=LINE('',#438,#439);
#345=CIRCLE('',#440,9.1);
#346=LINE('',#441,#442);
#348=VERTEX_POINT('',#444);
#349=B_SPLINE_CURVE_WITH_KNOTS('',3,(#445,#446,#447,#448,#449,#450,#451,#452,#453,#454,#455,#456,#457,#458,#459,#460),.UNSPECIFIED.,.F.,.F.,(4,3,3,3,3,4),(0.0,0.215422509921392,0.430852440715965,0.646156053675734,0.861085339287712,1.0),.UNSPECIFIED.);
#350=CIRCLE('',#461,8.1);
#352=VERTEX_POINT('',#463);
#353=LINE('',#464,#465);
#354=CIRCLE('',#466,8.1);
#356=VERTEX_POINT('',#468);
#357=B_SPLINE_CURVE_WITH_KNOTS('',3,(#469,#470,#471,#472,#473,#474,#475,#476,#477,#478,#479,#480,#481,#482,#483,#484),.UNSPECIFIED.,.F.,.F.,(4,3,3,3,3,4),(0.0,0.214418250240081,0.428822859135058,0.643442921937787,0.858485400153521,1.0),.UNSPECIFIED.);
#358=CIRCLE('',#485,9.1);
#360=LINE('',#487,#488);
#361=LINE('',#489,#490);
#364=FILL_AREA_STYLE_COLOUR('',#493);
#365=COLOUR_RGB('',0.800000011920929,0.800000011920929,0.800000011920929);
#366=CARTESIAN_POINT('',(5.89999999999828,14.9760960384017,1.0621048896597E-014));
#367=CARTESIAN_POINT('',(6.89999999999829,14.9760960384017,1.00000000000001));
#368=AXIS2_PLACEMENT_3D('',#494,#495,#496);
#369=CARTESIAN_POINT('',(24.0848431466905,15.5010960384017,-9.99200722162641E-015));
#370=AXIS2_PLACEMENT_3D('',#497,#498,#499);
#371=CARTESIAN_POINT('',(23.0829682048102,15.5010960384017,0.999999999999991));
#372=CARTESIAN_POINT('',(24.0848431466905,15.5010960384017,-9.99200722162641E-015));
#373=CARTESIAN_POINT('',(23.972565101621,15.5010960384017,-9.99200722162641E-015));
#374=CARTESIAN_POINT('',(23.8587388451137,15.5010960384017,0.01937957111502));
#375=CARTESIAN_POINT('',(23.7527879278624,15.5010960384017,0.0565381843592431));
#376=CARTESIAN_POINT('',(23.646835078751,15.5010960384017,0.093697475136437));
#377=CARTESIAN_POINT('',(23.5458329452372,15.5010960384017,0.149664034793508));
#378=CARTESIAN_POINT('',(23.4581683050901,15.5010960384017,0.219819077333276));
#379=CARTESIAN_POINT('',(23.3705565372966,15.5010960384017,0.289931807919134));
#380=CARTESIAN_POINT('',(23.2938460880206,15.5010960384017,0.376157072878863));
#381=CARTESIAN_POINT('',(23.2344387113409,15.5010960384017,0.471353608751465));
#382=CARTESIAN_POINT('',(23.1751338311471,15.5010960384017,0.566385900536205));
#383=CARTESIAN_POINT('',(23.1314348880162,15.5010960384017,0.672987817392402));
#384=CARTESIAN_POINT('',(23.1070007884164,15.5010960384017,0.782309270334681));
#385=CARTESIAN_POINT('',(23.0910766942906,15.5010960384017,0.853555812467893));
#386=CARTESIAN_POINT('',(23.0829682048102,15.5010960384017,0.926995571780415));
#387=CARTESIAN_POINT('',(23.0829682048102,15.5010960384017,0.999999999999991));
#388=AXIS2_PLACEMENT_3D('',#500,#501,#502);
#390=CARTESIAN_POINT('',(6.89999999999829,14.9760960384017,1.10000000000001));
#391=CARTESIAN_POINT('',(6.89999999999828,14.9760960384017,1.05));
#392=VECTOR('',#503,1.0);
#393=CARTESIAN_POINT('',(23.0829682048102,15.5010960384017,1.09999999999999));
#394=CARTESIAN_POINT('',(23.0829682048101,15.5010960384016,-32.825));
#395=VECTOR('',#504,1.0);
#396=AXIS2_PLACEMENT_3D('',#505,#506,#507);
#398=CARTESIAN_POINT('',(5.89999999999829,14.9760960384017,2.10000000000001));
#399=AXIS2_PLACEMENT_3D('',#508,#509,#510);
#400=CARTESIAN_POINT('',(24.0848431466905,15.5010960384017,2.09999999999999));
#401=CARTESIAN_POINT('',(23.0829682048102,15.5010960384017,1.09999999999999));
#402=CARTESIAN_POINT('',(23.0829682048102,15.5010960384017,1.21175452013955));
#403=CARTESIAN_POINT('',(23.1022767259071,15.5010960384017,1.32504997945142));
#404=CARTESIAN_POINT('',(23.1392800071782,15.5010960384017,1.43050058374936));
#405=CARTESIAN_POINT('',(23.1762819743051,15.5010960384017,1.53594744304721));
#406=CARTESIAN_POINT('',(23.2319933552299,15.5010960384017,1.63645578271623));
#407=CARTESIAN_POINT('',(23.3017811732088,15.5010960384017,1.72373605636825));
#408=CARTESIAN_POINT('',(23.3716397321355,15.5010960384017,1.81110480232747));
#409=CARTESIAN_POINT('',(23.457522415012,15.5010960384017,1.88762466589214));
#410=CARTESIAN_POINT('',(23.5523223681464,15.5010960384017,1.94700888022155));
#411=CARTESIAN_POINT('',(23.647306335003,15.5010960384017,2.00650836370416));
#412=CARTESIAN_POINT('',(23.7538560375282,15.5010960384017,2.05044447353873));
#413=CARTESIAN_POINT('',(23.8631674702542,15.5010960384017,2.07520640338842));
#414=CARTESIAN_POINT('',(23.9356828438183,15.5010960384017,2.091633052902));
#415=CARTESIAN_POINT('',(24.0104905124575,15.5010960384017,2.09999999999999));
#416=CARTESIAN_POINT('',(24.0848431466905,15.5010960384017,2.09999999999999));
#417=AXIS2_PLACEMENT_3D('',#511,#512,#513);
#419=CARTESIAN_POINT('',(-1.70885527950304E-012,14.9760960384017,2.10000000000002));
#420=CARTESIAN_POINT('',(-1.71773706370004E-012,14.9760960384017,1.7561384871087E-014));
#421=CARTESIAN_POINT('',(-1.70174985214544E-012,14.9760960384017,1.05000000000002));
#422=VECTOR('',#514,1.0);
#423=CARTESIAN_POINT('',(29.9908096846017,15.5010960384017,2.09999999999998));
#424=AXIS2_PLACEMENT_3D('',#515,#516,#517);
#425=CARTESIAN_POINT('',(29.9908096846017,15.5010960384017,-1.99840144432528E-014));
#426=CARTESIAN_POINT('',(29.9908096846017,15.5010960384016,-32.825));
#427=VECTOR('',#518,1.0);
#428=AXIS2_PLACEMENT_3D('',#519,#520,#521);
#430=CARTESIAN_POINT('',(29.9908096846017,14.4510960384017,-9.99200722162641E-015));
#431=AXIS2_PLACEMENT_3D('',#522,#523,#524);
#432=CARTESIAN_POINT('',(29.9908096846017,14.4510960384017,2.09999999999998));
#433=CARTESIAN_POINT('',(29.9908096846017,14.4510960384016,-32.825));
#434=VECTOR('',#525,1.0);
#435=AXIS2_PLACEMENT_3D('',#526,#527,#528);
#437=CARTESIAN_POINT('',(24.0848431466905,14.4510960384017,2.09999999999999));
#438=CARTESIAN_POINT('',(30.2999999999983,14.4510960384017,2.09999999999998));
#439=VECTOR('',#529,1.0);
#440=AXIS2_PLACEMENT_3D('',#530,#531,#532);
#441=CARTESIAN_POINT('',(14.9999999999983,15.5010960384017,2.1));
#442=VECTOR('',#533,1.0);
#444=CARTESIAN_POINT('',(23.0829682048102,14.4510960384017,1.09999999999999));
#445=CARTESIAN_POINT('',(24.0848431466905,14.4510960384017,2.09999999999999));
#446=CARTESIAN_POINT('',(23.972565101621,14.4510960384017,2.09999999999999));
#447=CARTESIAN_POINT('',(23.8587388451137,14.4510960384017,2.08062042888496));
#448=CARTESIAN_POINT('',(23.7527879278624,14.4510960384017,2.04346181564073));
#449=CARTESIAN_POINT('',(23.646835078751,14.4510960384017,2.00630252486354));
#450=CARTESIAN_POINT('',(23.5458329452372,14.4510960384017,1.95033596520647));
#451=CARTESIAN_POINT('',(23.4581683050901,14.4510960384017,1.8801809226667));
#452=CARTESIAN_POINT('',(23.3705565372966,14.4510960384017,1.81006819208084));
#453=CARTESIAN_POINT('',(23.2938460880206,14.4510960384017,1.72384292712112));
#454=CARTESIAN_POINT('',(23.2344387113409,14.4510960384017,1.62864639124851));
#455=CARTESIAN_POINT('',(23.1751338311471,14.4510960384017,1.53361409946377));
#456=CARTESIAN_POINT('',(23.1314348880162,14.4510960384017,1.42701218260758));
#457=CARTESIAN_POINT('',(23.1070007884164,14.4510960384017,1.3176907296653));
#458=CARTESIAN_POINT('',(23.0910766942906,14.4510960384017,1.24644418753209));
#459=CARTESIAN_POINT('',(23.0829682048102,14.4510960384017,1.17300442821957));
#460=CARTESIAN_POINT('',(23.0829682048102,14.4510960384017,1.09999999999999));
#461=AXIS2_PLACEMENT_3D('',#534,#535,#536);
#463=CARTESIAN_POINT('',(23.0829682048102,14.4510960384017,0.999999999999994));
#464=CARTESIAN_POINT('',(23.0829682048101,14.4510960384016,-32.825));
#465=VECTOR('',#537,1.0);
#466=AXIS2_PLACEMENT_3D('',#538,#539,#540);
#468=CARTESIAN_POINT('',(24.0848431466905,14.4510960384017,-9.99200722162641E-015));
#469=CARTESIAN_POINT('',(23.0829682048102,14.4510960384017,0.999999999999994));
#470=CARTESIAN_POINT('',(23.0829682048102,14.4510960384017,0.888245479860435));
#471=CARTESIAN_POINT('',(23.1022767259071,14.4510960384017,0.774950020548561));
#472=CARTESIAN_POINT('',(23.1392800071782,14.4510960384017,0.669499416250618));
#473=CARTESIAN_POINT('',(23.1762819743051,14.4510960384017,0.564052556952772));
#474=CARTESIAN_POINT('',(23.2319933552299,14.4510960384017,0.463544217283755));
#475=CARTESIAN_POINT('',(23.3017811732088,14.4510960384017,0.37626394363173));
#476=CARTESIAN_POINT('',(23.3716397321355,14.4510960384017,0.288895197672507));
#477=CARTESIAN_POINT('',(23.457522415012,14.4510960384017,0.212375334107844));
#478=CARTESIAN_POINT('',(23.5523223681464,14.4510960384017,0.152991119778425));
#479=CARTESIAN_POINT('',(23.6473063350029,14.4510960384017,0.093491636295817));
#480=CARTESIAN_POINT('',(23.7538560375282,14.4510960384017,0.0495555264612499));
#481=CARTESIAN_POINT('',(23.8631674702542,14.4510960384017,0.02479359661155));
#482=CARTESIAN_POINT('',(23.9356828438183,14.4510960384017,0.00836694709798014));
#483=CARTESIAN_POINT('',(24.0104905124575,14.4510960384017,-9.99200722162641E-015));
#484=CARTESIAN_POINT('',(24.0848431466905,14.4510960384017,-9.99200722162641E-015));
#485=AXIS2_PLACEMENT_3D('',#541,#542,#543);
#487=CARTESIAN_POINT('',(14.9999999999983,14.4510960384017,0.0));
#488=VECTOR('',#544,1.0);
#489=CARTESIAN_POINT('',(14.9999999999983,15.5010960384017,0.0));
#490=VECTOR('',#545,1.0);
#493=COLOUR_RGB('',0.717647075653076,0.811749458312988,0.764705896377563);
#494=CARTESIAN_POINT('',(5.89999999999829,14.9760960384017,1.00000000000001));
#495=DIRECTION('',(1.75876914792108E-016,-1.0,3.51436609374757E-015));
#496=DIRECTION('',(-1.0,-1.75876914792104E-016,1.17142140665822E-015));
#497=CARTESIAN_POINT('',(14.9999999999983,14.9760960384017,0.0));
#498=DIRECTION('',(-1.16760233959977E-015,-3.51436609374757E-015,-1.0));
#499=DIRECTION('',(1.0,-6.09306817141042E-046,-1.16760233959977E-015));
#500=CARTESIAN_POINT('',(14.9999999999983,14.9760960384017,1.0));
#501=DIRECTION('',(-1.17120605052446E-015,-3.51436609374757E-015,-1.0));
#502=DIRECTION('',(1.0,6.84529880985615E-046,-1.17120605052446E-015));
#503=DIRECTION('',(8.56653568383608E-016,3.51436609374757E-015,1.0));
#504=DIRECTION('',(-1.17145536458252E-015,-3.51436609374757E-015,-1.0));
#505=CARTESIAN_POINT('',(14.9999999999983,14.9760960384017,1.1));
#506=DIRECTION('',(-1.17120605052446E-015,-3.51436609374757E-015,-1.0));
#507=DIRECTION('',(1.0,6.84529880985615E-046,-1.17120605052446E-015));
#508=CARTESIAN_POINT('',(5.89999999999829,14.9760960384017,1.10000000000001));
#509=DIRECTION('',(1.75876914792108E-016,-1.0,3.51436609374757E-015));
#510=DIRECTION('',(-1.0,-1.75876914792104E-016,1.17142140665822E-015));
#511=CARTESIAN_POINT('',(14.9999999999983,14.9760960384017,2.1));
#512=DIRECTION('',(-1.16760233959977E-015,-3.51436609374757E-015,-1.0));
#513=DIRECTION('',(1.0,-6.09306817141042E-046,-1.16760233959977E-015));
#514=DIRECTION('',(-1.38777878078145E-015,-3.51436609374757E-015,-1.0));
#515=CARTESIAN_POINT('',(14.9999999999983,14.9760960384017,2.1));
#516=DIRECTION('',(-1.17093834628434E-015,-3.51436609374757E-015,-1.0));
#517=DIRECTION('',(1.0,0.0,-1.17093834628434E-015));
#518=DIRECTION('',(1.17145536458252E-015,3.51436609374757E-015,1.0));
#519=CARTESIAN_POINT('',(14.9999999999983,14.9760960384017,0.0));
#520=DIRECTION('',(-1.17093834628434E-015,-3.51436609374757E-015,-1.0));
#521=DIRECTION('',(1.0,0.0,-1.17093834628434E-015));
#522=CARTESIAN_POINT('',(14.9999999999983,14.9760960384017,0.0));
#523=DIRECTION('',(-1.17093834628434E-015,-3.51436609374757E-015,-1.0));
#524=DIRECTION('',(1.0,0.0,-1.17093834628434E-015));
#525=DIRECTION('',(-1.17145536458252E-015,-3.51436609374757E-015,-1.0));
#526=CARTESIAN_POINT('',(14.9999999999983,14.9760960384017,2.1));
#527=DIRECTION('',(-1.17093834628434E-015,-3.51436609374757E-015,-1.0));
#528=DIRECTION('',(1.0,0.0,-1.17093834628434E-015));
#529=DIRECTION('',(-1.0,4.11692301362752E-030,1.17145536458252E-015));
#530=CARTESIAN_POINT('',(14.9999999999983,14.9760960384017,2.1));
#531=DIRECTION('',(-1.16760233959977E-015,-3.51436609374757E-015,-1.0));
#532=DIRECTION('',(1.0,-6.09306817141042E-046,-1.16760233959977E-015));
#533=DIRECTION('',(1.0,-4.11692301362752E-030,-1.17145536458252E-015));
#534=CARTESIAN_POINT('',(14.9999999999983,14.9760960384017,1.1));
#535=DIRECTION('',(-1.17120605052446E-015,-3.51436609374757E-015,-1.0));
#536=DIRECTION('',(1.0,6.84529880985615E-046,-1.17120605052446E-015));
#537=DIRECTION('',(1.17145536458252E-015,3.51436609374757E-015,1.0));
#538=CARTESIAN_POINT('',(14.9999999999983,14.9760960384017,1.0));
#539=DIRECTION('',(-1.17120605052446E-015,-3.51436609374757E-015,-1.0));
#540=DIRECTION('',(1.0,6.84529880985615E-046,-1.17120605052446E-015));
#541=CARTESIAN_POINT('',(14.9999999999983,14.9760960384017,0.0));
#542=DIRECTION('',(-1.16760233959977E-015,-3.51436609374757E-015,-1.0));
#543=DIRECTION('',(1.0,-6.09306817141042E-046,-1.16760233959977E-015));
#544=DIRECTION('',(-1.0,4.11692301362752E-030,1.17145536458252E-015));
#545=DIRECTION('',(1.0,-4.11692301362752E-030,-1.17145536458252E-015));
#546=PRESENTATION_LAYER_ASSIGNMENT('1','Layer 1',(#61));
ENDSEC;
END-ISO-10303-21;

