ISO-10303-21;
HEADER;
FILE_DESCRIPTION(('STEP AP214'),'1');
FILE_NAME('cctmp_09A6D9B2-2994-49DA-A781-E2ADCDC9D2A1_2023_04_14_16_50_37_0469..stp','2023-04-14T14:50:37',('SIEMENS A&D'),('CADClick - www.CADClick.com'),'Spatial InterOp 3D postprocessed',' ','unknown authorization');
FILE_SCHEMA(('AUTOMOTIVE_DESIGN'));
ENDSEC;
DATA;
#1=MECHANICAL_DESIGN_GEOMETRIC_PRESENTATION_REPRESENTATION(' ',(#10,#11,#12,#13,#14,#15,#16,#17,#18,#19,#20,#21,#22,#23,#24),#6);
#2=PRODUCT_DEFINITION_CONTEXT('',#25,'design');
#3=APPLICATION_PROTOCOL_DEFINITION('INTERNATIONAL STANDARD','automotive_design',1994,#25);
#4=PRODUCT_CATEGORY_RELATIONSHIP('NONE','NONE',#26,#27);
#5=SHAPE_DEFINITION_REPRESENTATION(#28,#29);
#6= (GEOMETRIC_REPRESENTATION_CONTEXT(3)GLOBAL_UNCERTAINTY_ASSIGNED_CONTEXT((#32))GLOBAL_UNIT_ASSIGNED_CONTEXT((#34,#35,#36))REPRESENTATION_CONTEXT('NONE','WORKSPACE'));
#10=STYLED_ITEM('',(#38),#39);
#11=STYLED_ITEM('',(#40),#41);
#12=STYLED_ITEM('',(#42),#43);
#13=STYLED_ITEM('',(#44),#45);
#14=STYLED_ITEM('',(#46),#47);
#15=STYLED_ITEM('',(#48),#49);
#16=STYLED_ITEM('',(#50),#51);
#17=STYLED_ITEM('',(#52),#53);
#18=STYLED_ITEM('',(#54),#55);
#19=STYLED_ITEM('',(#56),#57);
#20=STYLED_ITEM('',(#58),#59);
#21=STYLED_ITEM('',(#60),#61);
#22=STYLED_ITEM('',(#62),#63);
#23=STYLED_ITEM('',(#64),#65);
#24=STYLED_ITEM('',(#66),#67);
#25=APPLICATION_CONTEXT(' ');
#26=PRODUCT_CATEGORY('part','NONE');
#27=PRODUCT_RELATED_PRODUCT_CATEGORY('detail',' ',(#68));
#28=PRODUCT_DEFINITION_SHAPE('NONE','NONE',#69);
#29=ADVANCED_BREP_SHAPE_REPRESENTATION('2023_04_14_16_50_37_0469',(#67,#70),#6);
#32=UNCERTAINTY_MEASURE_WITH_UNIT(LENGTH_MEASURE(1.0E-006),#34,'','');
#34= (CONVERSION_BASED_UNIT('MILLIMETRE',#73)LENGTH_UNIT()NAMED_UNIT(#76));
#35= (NAMED_UNIT(#78)PLANE_ANGLE_UNIT()SI_UNIT($,.RADIAN.));
#36= (NAMED_UNIT(#78)SOLID_ANGLE_UNIT()SI_UNIT($,.STERADIAN.));
#38=PRESENTATION_STYLE_ASSIGNMENT((#84));
#39=ADVANCED_FACE('',(#85),#86,.T.);
#40=PRESENTATION_STYLE_ASSIGNMENT((#87));
#41=ADVANCED_FACE('',(#88),#89,.T.);
#42=PRESENTATION_STYLE_ASSIGNMENT((#90));
#43=ADVANCED_FACE('',(#91),#92,.T.);
#44=PRESENTATION_STYLE_ASSIGNMENT((#93));
#45=ADVANCED_FACE('',(#94),#95,.T.);
#46=PRESENTATION_STYLE_ASSIGNMENT((#96));
#47=ADVANCED_FACE('',(#97),#98,.T.);
#48=PRESENTATION_STYLE_ASSIGNMENT((#99));
#49=ADVANCED_FACE('',(#100),#101,.T.);
#50=PRESENTATION_STYLE_ASSIGNMENT((#102));
#51=ADVANCED_FACE('',(#103),#104,.T.);
#52=PRESENTATION_STYLE_ASSIGNMENT((#105));
#53=ADVANCED_FACE('',(#106),#107,.T.);
#54=PRESENTATION_STYLE_ASSIGNMENT((#108));
#55=ADVANCED_FACE('',(#109),#110,.T.);
#56=PRESENTATION_STYLE_ASSIGNMENT((#111));
#57=ADVANCED_FACE('',(#112,#113),#114,.F.);
#58=PRESENTATION_STYLE_ASSIGNMENT((#115));
#59=ADVANCED_FACE('',(#116),#117,.T.);
#60=PRESENTATION_STYLE_ASSIGNMENT((#118));
#61=ADVANCED_FACE('',(#119,#120),#121,.T.);
#62=PRESENTATION_STYLE_ASSIGNMENT((#122));
#63=ADVANCED_FACE('',(#123),#124,.F.);
#64=PRESENTATION_STYLE_ASSIGNMENT((#125));
#65=ADVANCED_FACE('',(#126),#127,.T.);
#66=PRESENTATION_STYLE_ASSIGNMENT((#128));
#67=MANIFOLD_SOLID_BREP('2023_04_14_16_50_37_0469',#129);
#68=PRODUCT('2023_04_14_16_50_37_0469','','PART--DESC',(#130));
#69=PRODUCT_DEFINITION('','NONE',#131,#2);
#70=AXIS2_PLACEMENT_3D('',#132,#133,#134);
#73=LENGTH_MEASURE_WITH_UNIT(LENGTH_MEASURE(1.0),#135);
#76=DIMENSIONAL_EXPONENTS(1.0,0.0,0.0,0.0,0.0,0.0,0.0);
#78=DIMENSIONAL_EXPONENTS(0.0,0.0,0.0,0.0,0.0,0.0,0.0);
#84=SURFACE_STYLE_USAGE(.BOTH.,#136);
#85=FACE_OUTER_BOUND('',#137,.T.);
#86=CYLINDRICAL_SURFACE('',#138,5.15);
#87=SURFACE_STYLE_USAGE(.BOTH.,#139);
#88=FACE_OUTER_BOUND('',#140,.T.);
#89=CYLINDRICAL_SURFACE('',#141,4.5);
#90=SURFACE_STYLE_USAGE(.BOTH.,#136);
#91=FACE_OUTER_BOUND('',#143,.T.);
#92=CYLINDRICAL_SURFACE('',#144,5.15);
#93=SURFACE_STYLE_USAGE(.BOTH.,#136);
#94=FACE_OUTER_BOUND('',#146,.T.);
#95=TOROIDAL_SURFACE('',#147,3.65,1.5);
#96=SURFACE_STYLE_USAGE(.BOTH.,#136);
#97=FACE_OUTER_BOUND('',#149,.T.);
#98=TOROIDAL_SURFACE('',#150,3.65,1.5);
#99=SURFACE_STYLE_USAGE(.BOTH.,#136);
#100=FACE_OUTER_BOUND('',#152,.T.);
#101=TOROIDAL_SURFACE('',#153,3.65,1.5);
#102=SURFACE_STYLE_USAGE(.BOTH.,#136);
#103=FACE_OUTER_BOUND('',#155,.T.);
#104=TOROIDAL_SURFACE('',#156,3.65,1.5);
#105=SURFACE_STYLE_USAGE(.BOTH.,#136);
#106=FACE_OUTER_BOUND('',#158,.T.);
#107=PLANE('',#159);
#108=SURFACE_STYLE_USAGE(.BOTH.,#136);
#109=FACE_OUTER_BOUND('',#161,.T.);
#110=CYLINDRICAL_SURFACE('',#162,5.15);
#111=SURFACE_STYLE_USAGE(.BOTH.,#136);
#112=FACE_OUTER_BOUND('',#164,.T.);
#113=FACE_BOUND('',#165,.T.);
#114=PLANE('',#166);
#115=SURFACE_STYLE_USAGE(.BOTH.,#139);
#116=FACE_OUTER_BOUND('',#168,.T.);
#117=CYLINDRICAL_SURFACE('',#169,4.5);
#118=SURFACE_STYLE_USAGE(.BOTH.,#136);
#119=FACE_OUTER_BOUND('',#171,.T.);
#120=FACE_BOUND('',#172,.T.);
#121=PLANE('',#173);
#122=SURFACE_STYLE_USAGE(.BOTH.,#136);
#123=FACE_OUTER_BOUND('',#175,.T.);
#124=PLANE('',#176);
#125=SURFACE_STYLE_USAGE(.BOTH.,#136);
#126=FACE_OUTER_BOUND('',#178,.T.);
#127=CYLINDRICAL_SURFACE('',#179,5.15);
#128=SURFACE_STYLE_USAGE(.BOTH.,#180);
#129=CLOSED_SHELL('',(#39,#41,#43,#45,#47,#49,#51,#53,#55,#57,#59,#61,#63,#65));
#130=PRODUCT_CONTEXT('',#25,'mechanical');
#131=PRODUCT_DEFINITION_FORMATION_WITH_SPECIFIED_SOURCE(' ','NONE',#68,.NOT_KNOWN.);
#132=CARTESIAN_POINT('',(0.0,0.0,0.0));
#133=DIRECTION('',(0.0,0.0,1.0));
#134=DIRECTION('',(1.0,0.0,0.0));
#135= (NAMED_UNIT(#76)LENGTH_UNIT()SI_UNIT(.MILLI.,.METRE.));
#136=SURFACE_SIDE_STYLE('',(#182));
#137=EDGE_LOOP('',(#183,#184,#185,#186,#187));
#138=AXIS2_PLACEMENT_3D('',#188,#189,#190);
#139=SURFACE_SIDE_STYLE('',(#191));
#140=EDGE_LOOP('',(#192,#193,#194,#195));
#141=AXIS2_PLACEMENT_3D('',#196,#197,#198);
#143=EDGE_LOOP('',(#200,#201,#202,#203,#204));
#144=AXIS2_PLACEMENT_3D('',#205,#206,#207);
#146=EDGE_LOOP('',(#209,#210,#211,#212,#213,#214));
#147=AXIS2_PLACEMENT_3D('',#215,#216,#217);
#149=EDGE_LOOP('',(#219,#220,#221,#222,#223,#224));
#150=AXIS2_PLACEMENT_3D('',#225,#226,#227);
#152=EDGE_LOOP('',(#229,#230,#231,#232,#233));
#153=AXIS2_PLACEMENT_3D('',#234,#235,#236);
#155=EDGE_LOOP('',(#238,#239,#240,#241,#242));
#156=AXIS2_PLACEMENT_3D('',#243,#244,#245);
#158=EDGE_LOOP('',(#247,#248,#249));
#159=AXIS2_PLACEMENT_3D('',#250,#251,#252);
#161=EDGE_LOOP('',(#254,#255,#256,#257,#258));
#162=AXIS2_PLACEMENT_3D('',#259,#260,#261);
#164=EDGE_LOOP('',(#263,#264));
#165=EDGE_LOOP('',(#265,#266));
#166=AXIS2_PLACEMENT_3D('',#267,#268,#269);
#168=EDGE_LOOP('',(#271,#272,#273,#274));
#169=AXIS2_PLACEMENT_3D('',#275,#276,#277);
#171=EDGE_LOOP('',(#279,#280));
#172=EDGE_LOOP('',(#281,#282));
#173=AXIS2_PLACEMENT_3D('',#283,#284,#285);
#175=EDGE_LOOP('',(#287,#288,#289));
#176=AXIS2_PLACEMENT_3D('',#290,#291,#292);
#178=EDGE_LOOP('',(#294,#295,#296,#297,#298));
#179=AXIS2_PLACEMENT_3D('',#299,#300,#301);
#180=SURFACE_SIDE_STYLE('',(#302));
#182=SURFACE_STYLE_FILL_AREA(#303);
#183=ORIENTED_EDGE('',*,*,#304,.F.);
#184=ORIENTED_EDGE('',*,*,#305,.F.);
#185=ORIENTED_EDGE('',*,*,#306,.F.);
#186=ORIENTED_EDGE('',*,*,#307,.F.);
#187=ORIENTED_EDGE('',*,*,#308,.T.);
#188=CARTESIAN_POINT('',(5.15,39.9,5.1398376514));
#189=DIRECTION('',(-0.0,1.0,0.0));
#190=DIRECTION('',(1.0,0.0,0.0));
#191=SURFACE_STYLE_FILL_AREA(#309);
#192=ORIENTED_EDGE('',*,*,#310,.F.);
#193=ORIENTED_EDGE('',*,*,#311,.F.);
#194=ORIENTED_EDGE('',*,*,#312,.F.);
#195=ORIENTED_EDGE('',*,*,#313,.T.);
#196=CARTESIAN_POINT('',(5.15,39.9,5.1398376514));
#197=DIRECTION('',(-0.0,1.0,0.0));
#198=DIRECTION('',(1.0,0.0,0.0));
#200=ORIENTED_EDGE('',*,*,#315,.F.);
#201=ORIENTED_EDGE('',*,*,#316,.F.);
#202=ORIENTED_EDGE('',*,*,#317,.F.);
#203=ORIENTED_EDGE('',*,*,#318,.T.);
#204=ORIENTED_EDGE('',*,*,#319,.T.);
#205=CARTESIAN_POINT('',(5.15,39.9,5.1398376514));
#206=DIRECTION('',(-0.0,1.0,0.0));
#207=DIRECTION('',(1.0,0.0,0.0));
#209=ORIENTED_EDGE('',*,*,#321,.F.);
#210=ORIENTED_EDGE('',*,*,#322,.F.);
#211=ORIENTED_EDGE('',*,*,#323,.F.);
#212=ORIENTED_EDGE('',*,*,#324,.F.);
#213=ORIENTED_EDGE('',*,*,#305,.T.);
#214=ORIENTED_EDGE('',*,*,#325,.T.);
#215=CARTESIAN_POINT('',(5.15,36.5,5.1398376514));
#216=DIRECTION('',(0.0,-1.0,-0.0));
#217=DIRECTION('',(-0.999100629026073,0.0,-0.0424020409851386));
#219=ORIENTED_EDGE('',*,*,#327,.F.);
#220=ORIENTED_EDGE('',*,*,#328,.F.);
#221=ORIENTED_EDGE('',*,*,#319,.F.);
#222=ORIENTED_EDGE('',*,*,#329,.F.);
#223=ORIENTED_EDGE('',*,*,#330,.T.);
#224=ORIENTED_EDGE('',*,*,#331,.T.);
#225=CARTESIAN_POINT('',(5.15,1.5,5.1398376514));
#226=DIRECTION('',(0.0,-1.0,-0.0));
#227=DIRECTION('',(-0.999587921340607,0.0,-0.0287051826325002));
#229=ORIENTED_EDGE('',*,*,#327,.T.);
#230=ORIENTED_EDGE('',*,*,#333,.T.);
#231=ORIENTED_EDGE('',*,*,#329,.T.);
#232=ORIENTED_EDGE('',*,*,#318,.F.);
#233=ORIENTED_EDGE('',*,*,#334,.F.);
#234=CARTESIAN_POINT('',(5.15,1.5,5.1398376514));
#235=DIRECTION('',(0.0,-1.0,-0.0));
#236=DIRECTION('',(-0.999587921340607,0.0,-0.0287051826325002));
#238=ORIENTED_EDGE('',*,*,#321,.T.);
#239=ORIENTED_EDGE('',*,*,#336,.T.);
#240=ORIENTED_EDGE('',*,*,#306,.T.);
#241=ORIENTED_EDGE('',*,*,#324,.T.);
#242=ORIENTED_EDGE('',*,*,#337,.F.);
#243=CARTESIAN_POINT('',(5.15,36.5,5.1398376514));
#244=DIRECTION('',(0.0,-1.0,-0.0));
#245=DIRECTION('',(-0.999100629026073,0.0,-0.0424020409851386));
#247=ORIENTED_EDGE('',*,*,#331,.F.);
#248=ORIENTED_EDGE('',*,*,#330,.F.);
#249=ORIENTED_EDGE('',*,*,#333,.F.);
#250=CARTESIAN_POINT('',(5.15,0.0,5.1398376514));
#251=DIRECTION('',(0.0,-1.0,0.0));
#252=DIRECTION('',(0.0,0.0,1.0));
#254=ORIENTED_EDGE('',*,*,#315,.T.);
#255=ORIENTED_EDGE('',*,*,#328,.T.);
#256=ORIENTED_EDGE('',*,*,#334,.T.);
#257=ORIENTED_EDGE('',*,*,#317,.T.);
#258=ORIENTED_EDGE('',*,*,#340,.F.);
#259=CARTESIAN_POINT('',(5.15,39.9,5.1398376514));
#260=DIRECTION('',(-0.0,1.0,0.0));
#261=DIRECTION('',(1.0,0.0,0.0));
#263=ORIENTED_EDGE('',*,*,#340,.T.);
#264=ORIENTED_EDGE('',*,*,#316,.T.);
#265=ORIENTED_EDGE('',*,*,#342,.F.);
#266=ORIENTED_EDGE('',*,*,#313,.F.);
#267=CARTESIAN_POINT('',(5.15,10.5,5.1398376514));
#268=DIRECTION('',(0.0,-1.0,0.0));
#269=DIRECTION('',(0.0,0.0,1.0));
#271=ORIENTED_EDGE('',*,*,#310,.T.);
#272=ORIENTED_EDGE('',*,*,#342,.T.);
#273=ORIENTED_EDGE('',*,*,#312,.T.);
#274=ORIENTED_EDGE('',*,*,#344,.F.);
#275=CARTESIAN_POINT('',(5.15,39.9,5.1398376514));
#276=DIRECTION('',(-0.0,1.0,0.0));
#277=DIRECTION('',(1.0,0.0,0.0));
#279=ORIENTED_EDGE('',*,*,#346,.F.);
#280=ORIENTED_EDGE('',*,*,#308,.F.);
#281=ORIENTED_EDGE('',*,*,#344,.T.);
#282=ORIENTED_EDGE('',*,*,#311,.T.);
#283=CARTESIAN_POINT('',(5.15,27.5,5.1398376514));
#284=DIRECTION('',(0.0,-1.0,0.0));
#285=DIRECTION('',(0.0,0.0,1.0));
#287=ORIENTED_EDGE('',*,*,#322,.T.);
#288=ORIENTED_EDGE('',*,*,#337,.T.);
#289=ORIENTED_EDGE('',*,*,#323,.T.);
#290=CARTESIAN_POINT('',(5.15,38.0,5.1398376514));
#291=DIRECTION('',(0.0,-1.0,0.0));
#292=DIRECTION('',(0.0,0.0,1.0));
#294=ORIENTED_EDGE('',*,*,#304,.T.);
#295=ORIENTED_EDGE('',*,*,#346,.T.);
#296=ORIENTED_EDGE('',*,*,#307,.T.);
#297=ORIENTED_EDGE('',*,*,#336,.F.);
#298=ORIENTED_EDGE('',*,*,#325,.F.);
#299=CARTESIAN_POINT('',(5.15,39.9,5.1398376514));
#300=DIRECTION('',(-0.0,1.0,0.0));
#301=DIRECTION('',(1.0,0.0,0.0));
#302=SURFACE_STYLE_FILL_AREA(#349);
#303=FILL_AREA_STYLE('',(#350));
#304=EDGE_CURVE('',#351,#352,#353,.T.);
#305=EDGE_CURVE('',#354,#351,#355,.T.);
#306=EDGE_CURVE('',#356,#354,#357,.T.);
#307=EDGE_CURVE('',#358,#356,#359,.T.);
#308=EDGE_CURVE('',#358,#352,#360,.T.);
#309=FILL_AREA_STYLE('',(#361));
#310=EDGE_CURVE('',#362,#363,#364,.T.);
#311=EDGE_CURVE('',#365,#362,#366,.T.);
#312=EDGE_CURVE('',#367,#365,#368,.T.);
#313=EDGE_CURVE('',#367,#363,#369,.T.);
#315=EDGE_CURVE('',#371,#372,#373,.T.);
#316=EDGE_CURVE('',#374,#371,#375,.T.);
#317=EDGE_CURVE('',#376,#374,#377,.T.);
#318=EDGE_CURVE('',#376,#378,#379,.T.);
#319=EDGE_CURVE('',#378,#372,#380,.T.);
#321=EDGE_CURVE('',#382,#383,#384,.T.);
#322=EDGE_CURVE('',#385,#382,#386,.T.);
#323=EDGE_CURVE('',#387,#385,#388,.T.);
#324=EDGE_CURVE('',#354,#387,#389,.T.);
#325=EDGE_CURVE('',#351,#383,#390,.T.);
#327=EDGE_CURVE('',#392,#393,#394,.T.);
#328=EDGE_CURVE('',#372,#392,#395,.T.);
#329=EDGE_CURVE('',#396,#378,#397,.T.);
#330=EDGE_CURVE('',#396,#398,#399,.T.);
#331=EDGE_CURVE('',#398,#393,#400,.T.);
#333=EDGE_CURVE('',#393,#396,#402,.T.);
#334=EDGE_CURVE('',#392,#376,#403,.T.);
#336=EDGE_CURVE('',#383,#356,#405,.T.);
#337=EDGE_CURVE('',#382,#387,#406,.T.);
#340=EDGE_CURVE('',#371,#374,#409,.T.);
#342=EDGE_CURVE('',#363,#367,#411,.T.);
#344=EDGE_CURVE('',#362,#365,#413,.T.);
#346=EDGE_CURVE('',#352,#358,#415,.T.);
#349=FILL_AREA_STYLE('',(#418));
#350=FILL_AREA_STYLE_COLOUR('',#419);
#351=VERTEX_POINT('',#420);
#352=VERTEX_POINT('',#421);
#353=LINE('',#422,#423);
#354=VERTEX_POINT('',#424);
#355=CIRCLE('',#425,5.15);
#356=VERTEX_POINT('',#426);
#357=CIRCLE('',#427,5.15);
#358=VERTEX_POINT('',#428);
#359=LINE('',#429,#430);
#360=CIRCLE('',#431,5.15);
#361=FILL_AREA_STYLE_COLOUR('',#432);
#362=VERTEX_POINT('',#433);
#363=VERTEX_POINT('',#434);
#364=LINE('',#435,#436);
#365=VERTEX_POINT('',#437);
#366=CIRCLE('',#438,4.5);
#367=VERTEX_POINT('',#439);
#368=LINE('',#440,#441);
#369=CIRCLE('',#442,4.5);
#371=VERTEX_POINT('',#444);
#372=VERTEX_POINT('',#445);
#373=LINE('',#446,#447);
#374=VERTEX_POINT('',#448);
#375=CIRCLE('',#449,5.15);
#376=VERTEX_POINT('',#450);
#377=LINE('',#451,#452);
#378=VERTEX_POINT('',#453);
#379=CIRCLE('',#454,5.15);
#380=CIRCLE('',#455,5.15);
#382=VERTEX_POINT('',#457);
#383=VERTEX_POINT('',#458);
#384=CIRCLE('',#459,1.5);
#385=VERTEX_POINT('',#460);
#386=CIRCLE('',#461,3.65);
#387=VERTEX_POINT('',#462);
#388=CIRCLE('',#463,3.65);
#389=CIRCLE('',#464,1.5);
#390=CIRCLE('',#465,5.15);
#392=VERTEX_POINT('',#467);
#393=VERTEX_POINT('',#468);
#394=CIRCLE('',#469,1.5);
#395=CIRCLE('',#470,5.15);
#396=VERTEX_POINT('',#471);
#397=CIRCLE('',#472,1.5);
#398=VERTEX_POINT('',#473);
#399=CIRCLE('',#474,3.65);
#400=CIRCLE('',#475,3.65);
#402=CIRCLE('',#477,3.65);
#403=CIRCLE('',#478,5.15);
#405=CIRCLE('',#480,5.15);
#406=CIRCLE('',#481,3.65);
#409=CIRCLE('',#484,5.15);
#411=CIRCLE('',#486,4.5);
#413=CIRCLE('',#488,4.5);
#415=CIRCLE('',#490,5.15);
#418=FILL_AREA_STYLE_COLOUR('',#493);
#419=COLOUR_RGB('',0.874494552612305,0.874494552612305,0.874494552612305);
#420=CARTESIAN_POINT('',(10.3,36.5,5.1398376514));
#421=CARTESIAN_POINT('',(10.3,27.5,5.1398376514));
#422=CARTESIAN_POINT('',(10.3,32.0,5.1398376514));
#423=VECTOR('',#494,1.0);
#424=CARTESIAN_POINT('',(10.2953682394843,36.5,5.35820816247346));
#425=AXIS2_PLACEMENT_3D('',#495,#496,#497);
#426=CARTESIAN_POINT('',(0.0,36.5,5.1398376514));
#427=AXIS2_PLACEMENT_3D('',#498,#499,#500);
#428=CARTESIAN_POINT('',(0.0,27.5,5.1398376514));
#429=CARTESIAN_POINT('',(0.0,32.0,5.1398376514));
#430=VECTOR('',#501,1.0);
#431=AXIS2_PLACEMENT_3D('',#502,#503,#504);
#432=COLOUR_RGB('',0.768627464771271,0.749004364013672,0.647043585777283);
#433=CARTESIAN_POINT('',(9.65,27.5,5.1398376514));
#434=CARTESIAN_POINT('',(9.65,10.5,5.1398376514));
#435=CARTESIAN_POINT('',(9.65,19.0,5.1398376514));
#436=VECTOR('',#505,1.0);
#437=CARTESIAN_POINT('',(0.65,27.5,5.1398376514));
#438=AXIS2_PLACEMENT_3D('',#506,#507,#508);
#439=CARTESIAN_POINT('',(0.65,10.5,5.1398376514));
#440=CARTESIAN_POINT('',(0.65,19.0,5.1398376514));
#441=VECTOR('',#509,1.0);
#442=AXIS2_PLACEMENT_3D('',#510,#511,#512);
#444=CARTESIAN_POINT('',(10.3,10.5,5.1398376514));
#445=CARTESIAN_POINT('',(10.3,1.5,5.1398376514));
#446=CARTESIAN_POINT('',(10.3,6.0,5.1398376514));
#447=VECTOR('',#513,1.0);
#448=CARTESIAN_POINT('',(0.0,10.5,5.1398376514));
#449=AXIS2_PLACEMENT_3D('',#514,#515,#516);
#450=CARTESIAN_POINT('',(0.0,1.5,5.1398376514));
#451=CARTESIAN_POINT('',(0.0,6.0,5.1398376514));
#452=VECTOR('',#517,1.0);
#453=CARTESIAN_POINT('',(10.2978777949041,1.5,5.28766934195738));
#454=AXIS2_PLACEMENT_3D('',#518,#519,#520);
#455=AXIS2_PLACEMENT_3D('',#521,#522,#523);
#457=CARTESIAN_POINT('',(1.50328270405483,38.0,4.98507020180425));
#458=CARTESIAN_POINT('',(0.004631760515724,36.5,4.92146714032654));
#459=AXIS2_PLACEMENT_3D('',#524,#525,#526);
#460=CARTESIAN_POINT('',(8.8,38.0,5.1398376514));
#461=AXIS2_PLACEMENT_3D('',#527,#528,#529);
#462=CARTESIAN_POINT('',(8.79671729594517,38.0,5.29460510099576));
#463=AXIS2_PLACEMENT_3D('',#530,#531,#532);
#464=AXIS2_PLACEMENT_3D('',#533,#534,#535);
#465=AXIS2_PLACEMENT_3D('',#536,#537,#538);
#467=CARTESIAN_POINT('',(0.00212220509587624,1.5,4.99200596084262));
#468=CARTESIAN_POINT('',(1.50150408710679,0.0,5.03506373479138));
#469=AXIS2_PLACEMENT_3D('',#539,#540,#541);
#470=AXIS2_PLACEMENT_3D('',#542,#543,#544);
#471=CARTESIAN_POINT('',(8.79849591289321,0.0,5.24461156800863));
#472=AXIS2_PLACEMENT_3D('',#545,#546,#547);
#473=CARTESIAN_POINT('',(8.8,0.0,5.1398376514));
#474=AXIS2_PLACEMENT_3D('',#548,#549,#550);
#475=AXIS2_PLACEMENT_3D('',#551,#552,#553);
#477=AXIS2_PLACEMENT_3D('',#554,#555,#556);
#478=AXIS2_PLACEMENT_3D('',#557,#558,#559);
#480=AXIS2_PLACEMENT_3D('',#560,#561,#562);
#481=AXIS2_PLACEMENT_3D('',#563,#564,#565);
#484=AXIS2_PLACEMENT_3D('',#566,#567,#568);
#486=AXIS2_PLACEMENT_3D('',#569,#570,#571);
#488=AXIS2_PLACEMENT_3D('',#572,#573,#574);
#490=AXIS2_PLACEMENT_3D('',#575,#576,#577);
#493=COLOUR_RGB('',0.596063196659088,0.666666686534882,0.686259269714355);
#494=DIRECTION('',(-0.0,-1.0,-0.0));
#495=CARTESIAN_POINT('',(5.15,36.5,5.1398376514));
#496=DIRECTION('',(-0.0,1.0,0.0));
#497=DIRECTION('',(1.0,0.0,0.0));
#498=CARTESIAN_POINT('',(5.15,36.5,5.1398376514));
#499=DIRECTION('',(-0.0,1.0,0.0));
#500=DIRECTION('',(1.0,0.0,0.0));
#501=DIRECTION('',(0.0,1.0,0.0));
#502=CARTESIAN_POINT('',(5.15,27.5,5.1398376514));
#503=DIRECTION('',(-0.0,1.0,0.0));
#504=DIRECTION('',(1.0,0.0,0.0));
#505=DIRECTION('',(-0.0,-1.0,-0.0));
#506=CARTESIAN_POINT('',(5.15,27.5,5.1398376514));
#507=DIRECTION('',(-0.0,1.0,0.0));
#508=DIRECTION('',(1.0,0.0,0.0));
#509=DIRECTION('',(0.0,1.0,0.0));
#510=CARTESIAN_POINT('',(5.15,10.5,5.1398376514));
#511=DIRECTION('',(-0.0,1.0,0.0));
#512=DIRECTION('',(1.0,0.0,0.0));
#513=DIRECTION('',(-0.0,-1.0,-0.0));
#514=CARTESIAN_POINT('',(5.15,10.5,5.1398376514));
#515=DIRECTION('',(-0.0,1.0,0.0));
#516=DIRECTION('',(1.0,0.0,0.0));
#517=DIRECTION('',(0.0,1.0,0.0));
#518=CARTESIAN_POINT('',(5.15,1.5,5.1398376514));
#519=DIRECTION('',(-0.0,1.0,0.0));
#520=DIRECTION('',(1.0,0.0,0.0));
#521=CARTESIAN_POINT('',(5.15,1.5,5.1398376514));
#522=DIRECTION('',(-0.0,1.0,0.0));
#523=DIRECTION('',(1.0,0.0,0.0));
#524=CARTESIAN_POINT('',(1.50328270405483,36.5,4.98507020180425));
#525=DIRECTION('',(-0.0424020409851384,-0.0,0.999100629026073));
#526=DIRECTION('',(-0.999100629026073,0.0,-0.0424020409851384));
#527=CARTESIAN_POINT('',(5.15,38.0,5.1398376514));
#528=DIRECTION('',(-0.0,1.0,0.0));
#529=DIRECTION('',(1.0,0.0,0.0));
#530=CARTESIAN_POINT('',(5.15,38.0,5.1398376514));
#531=DIRECTION('',(-0.0,1.0,0.0));
#532=DIRECTION('',(1.0,0.0,0.0));
#533=CARTESIAN_POINT('',(8.79671729594517,36.5,5.29460510099576));
#534=DIRECTION('',(-0.0424020409851384,-0.0,0.999100629026073));
#535=DIRECTION('',(0.999100629026073,0.0,0.0424020409851384));
#536=CARTESIAN_POINT('',(5.15,36.5,5.1398376514));
#537=DIRECTION('',(-0.0,1.0,0.0));
#538=DIRECTION('',(1.0,0.0,0.0));
#539=CARTESIAN_POINT('',(1.50150408710679,1.5,5.03506373479138));
#540=DIRECTION('',(-0.0287051826325002,-0.0,0.999587921340607));
#541=DIRECTION('',(-0.999587921340607,0.0,-0.0287051826325001));
#542=CARTESIAN_POINT('',(5.15,1.5,5.1398376514));
#543=DIRECTION('',(-0.0,1.0,0.0));
#544=DIRECTION('',(1.0,0.0,0.0));
#545=CARTESIAN_POINT('',(8.79849591289321,1.5,5.24461156800863));
#546=DIRECTION('',(-0.0287051826325002,-0.0,0.999587921340607));
#547=DIRECTION('',(0.999587921340607,0.0,0.0287051826325001));
#548=CARTESIAN_POINT('',(5.15,0.0,5.1398376514));
#549=DIRECTION('',(-0.0,1.0,0.0));
#550=DIRECTION('',(1.0,0.0,0.0));
#551=CARTESIAN_POINT('',(5.15,0.0,5.1398376514));
#552=DIRECTION('',(-0.0,1.0,0.0));
#553=DIRECTION('',(1.0,0.0,0.0));
#554=CARTESIAN_POINT('',(5.15,0.0,5.1398376514));
#555=DIRECTION('',(-0.0,1.0,0.0));
#556=DIRECTION('',(1.0,0.0,0.0));
#557=CARTESIAN_POINT('',(5.15,1.5,5.1398376514));
#558=DIRECTION('',(-0.0,1.0,0.0));
#559=DIRECTION('',(1.0,0.0,0.0));
#560=CARTESIAN_POINT('',(5.15,36.5,5.1398376514));
#561=DIRECTION('',(-0.0,1.0,0.0));
#562=DIRECTION('',(1.0,0.0,0.0));
#563=CARTESIAN_POINT('',(5.15,38.0,5.1398376514));
#564=DIRECTION('',(-0.0,1.0,0.0));
#565=DIRECTION('',(1.0,0.0,0.0));
#566=CARTESIAN_POINT('',(5.15,10.5,5.1398376514));
#567=DIRECTION('',(-0.0,1.0,0.0));
#568=DIRECTION('',(1.0,0.0,0.0));
#569=CARTESIAN_POINT('',(5.15,10.5,5.1398376514));
#570=DIRECTION('',(-0.0,1.0,0.0));
#571=DIRECTION('',(1.0,0.0,0.0));
#572=CARTESIAN_POINT('',(5.15,27.5,5.1398376514));
#573=DIRECTION('',(-0.0,1.0,0.0));
#574=DIRECTION('',(1.0,0.0,0.0));
#575=CARTESIAN_POINT('',(5.15,27.5,5.1398376514));
#576=DIRECTION('',(-0.0,1.0,0.0));
#577=DIRECTION('',(1.0,0.0,0.0));
#578=PRESENTATION_LAYER_ASSIGNMENT('1','Layer 1',(#67));
ENDSEC;
END-ISO-10303-21;

